PrimaNota.ru - самый крупный в мире бесплатный архив песенных текстов, аккордов, табулатур и нот


Alice Nine - Yuri Ha Aoku Saite - таба, видео

Регистрация Запомнить меня
Войти через:  Facebook Google Twitter Vk Yandex Mail.ru

Alice Nine - Yuri Ha Aoku Saite - таба, видео

Печатать
Просмотров: 146
title: Yuri ha Aoku Saite
artist: Alice Nine
album: Yuri ha Aoku Saite(single)
tabbed by: LadyRebel99
Requested ako_si_camile26@yahoo.com
          visualkei_love@hotmail.com


********************
INTRO [PART I]:
********************

Gtr1:
e|----3---2-3-|
B|---3-3-3----|
G|------------|
D|------------|
A|------4-----|
E|-3----------|

Gtr2 enters:
e|7h10~~-
B|-------|
G|-------|
D|-------|
A|-------|
E|-------|

Gtr1:

e|--3---2-3-|
B|-3-3-3----|
G|----------|
D|----------|
A|4---2-----|
E|----------|

Gtr2 enters again:

e|---10----|
B|8-7--7-8-|
G|---------|
D|---------|
A|---------|
E|---------|

********************
INTRO [PART II]:
********************
note: listen to the song's strumming.(VV-VAVAAVAAV)

Gtr1:
  C(sus)       G(sus)       Em(sus)      C(sus)
e|33333333333--33333333333--33333333333--33333333333-|
B|33333333333--33333333333--33333333333--33333333333-|
G|00000000000--00000000000--00000000000--00000000000-|
D|22222222222--00000000000--22222222222--22222222222-|
A|33333333333--22222222222--22222222222--33333333333-|
E|-------------33333333333---------------------------|

Gtr2:
e|-----12-----12------12----------12------------|
B|12-10--12-10---------------------------7s8----|
G|---------------12-11--12-11--9-7--7s9-7---9-7-|
D|---------------------------12-----------------|
A|----------------------------------------------|
E|----------------------------------------------|

*******************
VERSE
*******************
Gtr1:
  C(sus)       G(sus)       Em(sus)      C(sus)
e|33333333333--33333333333--33333333333--33333333333-|
B|33333333333--33333333333--33333333333--33333333333-|
G|00000000000--00000000000--00000000000--00000000000-|
D|22222222222--00000000000--22222222222--22222222222-|  (2x)
A|33333333333--22222222222--22222222222--33333333333-|
E|-------------33333333333---------------------------|

then Gtr2 enters:
e|-----12-----12------12----------12------------|
B|12-10--12-10---------------------------7s8----|
G|---------------12-11--12-11--9-7--7s9-7---9-7-|
D|---------------------------12-----------------|
A|----------------------------------------------|
E|----------------------------------------------|

Gtr1:
  C(sus)      G(sus)      Em(sus)    C(sus)
e|---3-----------3-----------3-----------3--3-|
B|--3-----------3-----------3-----------3-3---|
G|-0-----------------------------------0---0--|
D|-------------------------2------------------|  (2x)
A|3------------2----------2-----------3-------|
E|------------3-------------------------------|

Gtr2 enters:
e|-----12-----12------12----------12------------|
B|12-10--12-10---------------------------7s8----|
G|---------------12-11--12-11--9-7--7s9-7---9-7-|
D|---------------------------12-----------------|
A|----------------------------------------------|
E|----------------------------------------------|

Gtr1:
  C(sus)      G(sus)      Em(sus)     C(sus)
e|---3-----------3-----------3-----------3--3-|
B|--3-----------3-----------3-----------3-3---|
G|-0-----------------------------------0---0--|
D|-------------------------2------------------|  (2x)
A|3------------2----------2-----------3-------|
E|------------3-------------------------------|

*****************
REFRAIN
*****************
Gtr1:
  C(sus)      G(sus)      Em(sus)     C(sus)
e|---3-----------3-----------3-----------3-|
B|--3-----------3-----------3-----------3--|
G|-0-----------------------------------0---|
D|-------------------------2---------------|  (2x)
A|3------------2----------2-----------3----|
E|------------3----------------------------|

*****************
CHORUS
*****************
Gtr1:
  C           G           Em          C
e|------------------------------------------------|
B|------------------------------------------------|
G|55555555555-------------------------55555555555-|
D|55555555555-55555555555-22222222222-55555555555-|  (4x)
A|33333333333-55555555555-22222222222-33333333333-|
E|------------33333333333-------------------------|

Gtr2 enters:
e|-----12-----12------12----------12------------|
B|12-10--12-10---------------------------7s8----|
G|---------------12-11--12-11--9-7--7s9-7---9-7-|
D|---------------------------12-----------------|
A|----------------------------------------------|
E|----------------------------------------------|

*******************
Gtr1:
  C           G           Em          C
e|------------------------------------------------|
B|------------------------------------------------|
G|55555555555-------------------------55555555555-|
D|55555555555-55555555555-22222222222-55555555555-|  (2x)
A|33333333333-55555555555-22222222222-33333333333-|
E|------------33333333333-------------------------|

Gtr1:
  C(sus)      G(sus)      Em(sus)     C(sus)
e|---3-----------3-----------3-----------3-|
B|--3-----------3-----------3-----------3--|
G|-0-----------------------------------0---|
D|-------------------------2---------------|
A|3------------2----------2-----------3----|
E|------------3----------------------------|

*******************
[Repeat CHORUS]
*******************
OUTRO:

Csus Gsus Emsus Csus
|----|----|----|----|
Gtr2:
e|-----12-----12------12----------12------------|
B|12p10--12-10---------------------------7s8----|
G|---------------12-11--12-11--9-7--7s9-7---9-7-|
D|---------------------------12-----------------|  (2x)
A|----------------------------------------------|

         [fade]
*************************************************************

-end-

*pls. rate!
*If you have any comments / suggestions / requests, please feel free to email:
nikarie_amplified13@yahoo.com
*Thanks for supporting, Alice Niners...!
*************************************************************
Добавлено: 17.07.2012
Другие материалы по этой песне:

Страница создана 30.04.2012
http://primanota.ru/alice-nine/yuri-ha-aoku-saite-chords.htm
Привет, Гость.
Предлагаем пройти революционный курс по гитаре.
Подарок от PrimaNota.Ru, забирай!