PrimaNota.ru - самый крупный в мире бесплатный архив песенных текстов, аккордов, табулатур и нот


Alice Nine - Velvet - текст песни, бас-таба, видео

Регистрация Запомнить меня
Войти через:  Facebook Google Twitter Vk Yandex Mail.ru

Alice Nine - Velvet - текст песни, бас-таба, видео

Печатать
Просмотров: 142
Please note that this song is played in Drop C# (C# G# C# F#)
                                     Velvet                                      


                                                                     alice nine.
Bass
F#||-------|-------|-------|-------|-------|-------|-------|
C#||-------|-------|-------|-------|-------|-------|-------|
G#||-------|-------|-------|-------|-------|-------|-------|
C#||-------|-------|-------|-------|-------|-------|-------|
 
 
  Q    Q      Q     Q       E  E  E  E  E  E  E  E     E  E  E  E  E  E  E  E   
-------------------------|--------------------------|--------------------------|
-------------------------|--------------------------|--------------------------|
-------------------------|--------------------------|--------------------------|
------------/12\---------|--4--4--4--4--7--7--7--7--|--0--0--0--0--2--2--2--2--|
 
 
  E  E  E  E  E  E  E  E     E  E  E  E  E  E  E  E   
--------------------------|--------------------------|
--------------------------|--------------------------|
--------------------------|--------------------------|
--4--4--4--4--7--7--7--7--|--0--0--0--0--2--2--2--2--|
 
 
  E  E  E  E  E  E  E  E     E  E  E  E  E  E  E  E   
--------------------------|--------------------------|
--------------------------|--------------------------|
--------------------------|--------------------------|
--4--4--4--4--7--7--7--7--|--0--0--0--0--2--2--2--2--|
 
 
  E  E  E  E  E  E  E  E     E  E  E  E  E  E  E  E                           
--------------------------|--------------------------|-----|-----|-----|-----|
--------------------------|--------------------------|-----|-----|-----|-----|
--------------------------|--------------------------|-----|-----|-----|-----|
--4--4--4--4--7--7--7--7--|--0--0--0--0--2--2--2--2--|-----|-----|-----|-----|
 
 
-----|-----|-----|-----|-----|-----|-----|-----|-----|-----|-----|
-----|-----|-----|-----|-----|-----|-----|-----|-----|-----|-----|
-----|-----|-----|-----|-----|-----|-----|-----|-----|-----|-----|
-----|-----|-----|-----|-----|-----|-----|-----|-----|-----|-----|
 
 
  Q    Q      Q     Q       E  E  E  E  E  E  E  E     E  E  E  E  E  E  E  E   
-------------------------|--------------------------|--------------------------|
-------------------------|--------------------------|--------------------------|
-------------------------|--------------------------|--------------------------|
------------/12\---------|--4--4--4--4--7--7--7--7--|--0--0--0--0--2--2--2--2--|
 
 
  E  E  E  E  E  E  E  E     E  E  E  E  E  E  E  E   
--------------------------|--------------------------|
--------------------------|--------------------------|
--------------------------|--------------------------|
--4--4--4--4--7--7--7--7--|--0--0--0--0--2--2--2--2--|
 
 
  E  E  E  E  E  E  E  E     E  E  E  E  E  E  E  E   
--------------------------|--------------------------|
--------------------------|--------------------------|
--------------------------|--------------------------|
--4--4--4--4--7--7--7--7--|--0--0--0--0--2--2--2--2--|
 
 
  E  E  E  E  E  E  E  E     E  E  E  E  E  E  E  E   
--------------------------|--------------------------|
--------------------------|--------------------------|
--------------------------|--------------------------|
--4--4--4--4--7--7--7--7--|--0--0--0--0--2--2--2--2--|
 
 
  E  E  E  E  E  E  E  E     E  E  E  E  E  E  E  E   
--------------------------|--------------------------|
--------------------------|--------------------------|
--9--9--9--9--9--9--9--9--|--9--9--9--9--9--9--9--9--|
--------------------------|--------------------------|
 
 
  E  E  E  E  E  E  E  E     E  E  E  E  E  E  E  E   
--------------------------|--------------------------|
--------------------------|--------------------------|
--5--5--5--5--5--5--5--5--|--7--7--7--7--7--7--7--7--|
--------------------------|--------------------------|
 
 
  E  E  E  E  E  E  E  E     E  E  E  E  E  E  E  E   
--------------------------|--------------------------|
--------------------------|--------------------------|
--9--9--9--9--9--9--9--9--|--9--9--9--9--9--9--9--9--|
--------------------------|--------------------------|
 
 
  E  E  E  E  E  E  E  E     E  E  E  E  E  E  E  E   
--------------------------|--------------------------|
--------------------------|--------------------------|
--5--5--5--5--5--5--5--5--|--7--7--7--7--7--7--7--7--|
--------------------------|--------------------------|
 
 
  E  E  E  E  E  E  E  E     E  E  E  E  E  E  E  E   
--------------------------|--------------------------|
--------------------------|--------------------------|
--9--9--9--9--9--9--9--9--|--9--9--9--9--9--9--9--9--|
--------------------------|--------------------------|
 
 
  E  E  E  E  E  E  E  E     E  E  E  E  E  E  E  E   
--------------------------|--------------------------|
--------------------------|--------------------------|
--5--5--5--5--5--5--5--5--|--7--7--7--7--7--7--7--7--|
--------------------------|--------------------------|
 
 
  E  E  E  E  E  E  E  E     E  E  E  E  E  E  E  E   
--------------------------|--------------------------|
--------------------------|--------------------------|
--9--9--9--9--9--9--9--9--|--9--9--9--9--9--9--9--9--|
--------------------------|--------------------------|
 
 
  E  E  E  E  E  E  E  E     E  E  E  E  E  E  E  E   
--------------------------|--------------------------|
--------------------------|--------------------------|
--5--5--5--5--5--5--5--5--|--7--7--7--7--7--7--7-----|
--------------------------|--------------------------|
 
 
  E  E  E  E  E  E  E  E     E  E  E  E  E  E  Q       E  E  E  E  E  E  E  E   
--------------------------|-------------------------|--------------------------|
--------------------------|-------------------------|--------------------------|
--------------------------|-------------------------|--------------------------|
--4--4--4-----4--4--4-----|--4--4--4--4--4--2--L----|--4--4--4-----4--4--4-----|
 
 
  E  E  E  E  E  E  Q       E  E  E  E  E  E  E  E     E  E  E  E  E  E  Q     
-------------------------|--------------------------|-------------------------|
-------------------------|--------------------------|-------------------------|
-------------------------|--------------------------|-------------------------|
--4--4--4--4--4--2--L----|--4--4--4-----4--4--4-----|--4--4--4-----4--4--2----|
 
 
  E  E  E  E  E  E  E  E     E  E  E  E  E  E  Q       E  E  E  E  E  E  E  E   
--------------------------|-------------------------|--------------------------|
--------------------------|-------------------------|--------------------------|
--------------------------|-------------------------|--------------------------|
--4--4--4-----4--4--4-----|--4--4--4--4--4--2--L----|--4--4--4--4--4--4--4--4--|
 
 
  E  E  E  E  E  Q.         E  E  E  E  E  E  E  E     E  E  E  E  E  Q.       
-------------------------|--------------------------|-------------------------|
-----------------7\------|--------------------------|-----------------7\------|
-------------------------|--------------------------|-------------------------|
--4--4--4--4--4----------|--4--4--4--4--4--4--4--4--|--4--4--4--4--4----------|
 
 
  E  E  E  E  E  E  E  E     E  E  E  E  E  Q.         E  E  E  E  E  E  E  E   
--------------------------|-------------------------|--------------------------|
--------------------------|-----------------7\------|--------------------------|
--------------------------|-------------------------|--------------------------|
--4--4--4--4--4--4--4--4--|--4--4--4--4--4----------|--4--4--4--4--4--4--4--4--|
 
 
  E  E  E  E  E  E  E  E     W                   W                 
--------------------------|-------------------|-------------------|
--------------------------|-------------------|-------------------|
--------------------------|-------------------|-------------------|
--4--4--4--4--2--2--2--2--|--0----------------|--L----------------|
 
 
  W                   W                   H.           Q      
-------------------|-------------------|---------------------|
-------------------|-------------------|---------------------|
-------------------|-------------------|---------------------|
--2----------------|--L----------------|--4------------4s----|
 
 
   W                   H.           Q         Q.      Q.      Q     
--------------------|---------------4s----|--13------14------------|
--------------------|---------------------|------------------14----|
--------------------|---------------------|------------------------|
--16----------------|--2------------------|------------------------|
 
 
  W                   W                   W                 
-------------------|-------------------|-------------------|
-------------------|-------------------|-------------------|
-------------------|-------------------|-------------------|
--0----------------|--L----------------|--2----------------|
 
 
  Q    H.              E  E  E  E  E  E  E  E     E  E  E  E  E  E  E  E   
--------------------|--------------------------|--------------------------|
--------------------|--------------------------|--------------------------|
--------------------|--------------------------|--------------------------|
--2-----------------|--0--0--0--0--0--0--0--0--|--0--0--0--0--0--0--0--0--|
 
 
  E  E  E  E  E  E  E  E     E  E  E  E  E  E  E  E   
--------------------------|--------------------------|
--------------------------|--------------------------|
--------------------------|--------------------------|
--2--2--2--2--2--2--2--2--|--2--2--2--2--2--2--2--2--|
 
 
  E  E  E  E  E  E  E  E     E  E  E  E  E  E  E  E   
--------------------------|--------------------------|
--------------------------|--------------------------|
--------------------------|--------------------------|
--4--4--4--4--4--4--4--4--|--4--4--4--4--4--4--4--4--|
 
 
  E  E  E  E  E  E  E  E     E  E  E  E  E  E  E  E   
--------------------------|--------------------------|
--------------------------|--------------------------|
--------------------------|--------------------------|
--2--2--2--2--2--2--2--2--|--2--2--2--2--2--2--2--2--|
 
 
  E  E  E  E  E  E  E  E     E  E  E  E  E  E  E  E   
--------------------------|--------------------------|
--------------------------|--------------------------|
--------------------------|--------------------------|
--0--0--0--0--0--0--0--0--|--0--0--0--0--0--0--0--0--|
 
 
  E  E  E  E  E  E  E  E     E  E  E  E  E  E  E  E   
--------------------------|--------------------------|
--------------------------|--------------------------|
--------------------------|--------------------------|
--2--2--2--2--2--2--2--2--|--2--2--2--2--2--2--2--2--|
 
 
  E  E  E  E  E  E  E  E     E  E  E  E  E  E  E  E   
--------------------------|--------------------------|
--------------------------|--------------------------|
--------------------------|--------------------------|
--4--4--4--4--4--4--4--4--|--4--4--4--4--4--4--4--4--|
 
 
  E  E  E  E  E  E  E  E     E  E  E  E  E  E  E  E   
--------------------------|--------------------------|
--------------------------|--------------------------|
--------------------------|--------------------------|
--2--2--2--2--2--2--2--2--|--2--2--2--2--2--2--2--2--|
 
 
  E  E  E  E  E  E  E  E     E  E  E  E  E  E  E  E   
--------------------------|--------------------------|
--------------------------|--------------------------|
--------------------------|--------------------------|
--0--0--0--0--0--0--0--0--|--0--0--0--0--0--0--0--0--|
 
 
  E  E  E  E  E  E  E  E     E  E  E  E  E  E  E  E     E  Q.     E  Q    E   
--------------------------|--------------------------|-----------------------|
--------------------------|--------------------------|-----------------------|
--------------------------|--------------------------|-----------------------|
--2--2--2--2--2--2--2--2--|--2--2--2--2--2--2--2--2--|-----3------3-------3--|
 
 
  Q    E  Q    E  E  E     Q    E  Q    Q.        Q    H.            
------------------------|----------------------|--------------------|
------------------------|----------------------|--------------------|
------------------------|----------------------|--------------------|
--L----3-------3-----3--|--L----3-------3------|--3-----------------|
 
 
  E  E  E  E  E  E  E  E     E  E  E  E  E  E  E  E   
--------------------------|--------------------------|
--------------------------|--------------------------|
--------------------------|--------------------------|
--4--4--4--4--7--7--7--7--|--0--0--0--0--2--2--2--2--|
 
 
  E  E  E  E  E  E  E  E     E  E  E  E  E  E  E  E   
--------------------------|--------------------------|
--------------------------|--------------------------|
--------------------------|--------------------------|
--4--4--4--4--7--7--7--7--|--0--0--0--0--2--2--2--2--|
 
 
  E  E  E  E  E  E  E  E     E  E  E  E  E  E  E  E   
--------------------------|--------------------------|
--------------------------|--------------------------|
--------------------------|--------------------------|
--4--4--4--4--7--7--7--7--|--0--0--0--0--2--2--2--2--|
 
 
  E  E  E  E  E  E  E  E     E  E  E  E  E  E  E  E   
--------------------------|--------------------------|
--------------------------|--------------------------|
--------------------------|--------------------------|
--4--4--4--4--7--7--7--7--|--0--0--0--0--2--2--2--2--|
 
 
  E  E   E  E  E  E  E  E     E  E  E  E  E  E  E  E   
---------------------9-----|--------7-----------------|
--------11-----7--7-----7--|--------------------9-----|
--9--9------9--------------|--5--5-----5--7--7-----7--|
---------------------------|--------------------------|
 
 
  E  E   E  E  E  E  E  E     E  E  E  E  E  E  E  E   
---------------------9-----|--------7-----------------|
--------11-----7--7-----7--|--------------------9-----|
--9--9------9--------------|--5--5-----5--7--7-----7--|
---------------------------|--------------------------|
 
 
  E  E   E  E  E  E  E  E     E  E  E  E  E  E  E  E   
---------------------9-----|--------7-----------------|
--------11-----7--7-----7--|--------------------9-----|
--9--9------9--------------|--5--5-----5--7--7-----7--|
---------------------------|--------------------------|
 
 
  E  E   E  E  E  E  E  E     E  E  E  E  E  E  E  E     W                 
---------------------9-----|--------7-----------------|-------------------|
--------11-----7--7-----7--|--------------------9-----|-------------------|
--9--9------9--------------|--5--5-----5--7--7-----7--|--9----------------|
---------------------------|--------------------------|-------------------|
 
 
  W                   W                   W                   W                 
-------------------|-------------------|-------------------|-------------------|
-------------------|-------------------|-------------------|-------------------|
--L----------------|--L----------------|--L----------------|-------------------|
-------------------|-------------------|-------------------|-------------------|
 
 
  W                   W                   W                   W                 
-------------------|-------------------|-------------------|-------------------|
-------------------|-------------------|-------------------|-------------------|
-------------------|-------------------|-------------------|-------------------|
-------------------|-------------------|-------------------|-------------------|
 
 
  W                   W                   W                   W                 
-------------------|-------------------|-------------------|-------------------|
-------------------|-------------------|-------------------|-------------------|
-------------------|-------------------|-------------------|-------------------|
-------------------|-------------------|-------------------|-------------------|
 
 
  W                   W                   W                   W                 
-------------------|-------------------|-------------------|-------------------|
-------------------|-------------------|-------------------|-------------------|
-------------------|-------------------|-------------------|-------------------|
-------------------|-------------------|-------------------|-------------------|
 
 
  W                   W                   W                 
-------------------|-------------------|-------------------|
-------------------|-------------------|-------------------|
-------------------|-------------------|-------------------|
-------------------|-------------------|-------------------|
 
 
  E  E  E  E  E  E  E  E     E  E  E  E  E  E  E  E   
--------------------------|--------------------------|
--------------------------|--------------------------|
--9--9--9--9--9--9--9--9--|--9--9--9--9--9--9--9--9--|
--------------------------|--------------------------|
 
 
   E   E   E   E   E   E   E   E      E   E   E   E   E   E   E   E   
----------------------------------|----------------------------------|
----------------------------------|----------------------------------|
--11--11--11--11--11--11--11--11--|--11--11--11--11--11--11--11--11--|
----------------------------------|----------------------------------|
 
 
   E   E   E   E   E   E   E   E      E   E   E   E   E   E   E   E   
----------------------------------|----------------------------------|
----------------------------------|----------------------------------|
--12--12--12--12--12--12--12--12--|--12--12--12--12--12--12--12--12--|
----------------------------------|----------------------------------|
 
 
   E   E   E   E   E   E   E   E      E   E   E   E   E   E   E   E   
----------------------------------|----------------------------------|
----------------------------------|----------------------------------|
--14--14--14--14--14--14--14--14--|--14--14--14--14--14--14--14--14--|
----------------------------------|----------------------------------|
 
 
  E  E  E   E   E   E  E  E     E   E   E   E  E  E   E   E   
-----------------------------|-------------------------------|
-----------11--11--11--------|-----11--11--11--------11--11--|
--9--9--9--------------9--9--|--9--------------9--9----------|
-----------------------------|-------------------------------|
 
 
   E   E   E   E   E   E   E   E      E   E   E   E   E   E   E   E   
----------------------------------|----------------------------------|
--------------11--11--11----------|------11--11--11----------11--11--|
--11--11--11--------------11--11--|--11--------------11--11----------|
----------------------------------|----------------------------------|
 
 
   E   E   E   E   E   E   E   E      E   E   E   E   E   E   E   E   
----------------------------------|----------------------------------|
--------------14--14--14----------|------14--14--14----------14--14--|
--12--12--12--------------12--12--|--12--------------12--12----------|
----------------------------------|----------------------------------|
 
 
   W                   H.             Q        E  E  E  E  E  E  E  E   
--------------------|-----------------------|--------------------------|
--------------------|-----------------------|--------------------------|
--14----------------|-----------------------|--------------------------|
--------------------|---------------/12\----|--4--4--4--4--7--7--7--7--|
 
 
  E  E  E  E  E  E  E  E     E  E  E  E  E  E  E  E   
--------------------------|--------------------------|
--------------------------|--------------------------|
--------------------------|--------------------------|
--0--0--0--0--2--2--2--2--|--4--4--4--4--7--7--7--7--|
 
 
  E  E  E  E  E  E  E  E     E  E  E  E  E  E  E  E   
--------------------------|--------------------------|
--------------------------|--------------------------|
--------------------------|--------------------------|
--0--0--0--0--2--2--2--2--|--4--4--4--4--7--7--7--7--|
 
 
  E  E  E  E  E  E  E  E     E  E  E  E  E  E  E  E   
--------------------------|--------------------------|
--------------------------|--------------------------|
--------------------------|--------------------------|
--0--0--0--0--2--2--2--2--|--4--4--4--4--7--7--7--7--|
 
 
  E  E  E  E  E  E  E  E     E  E  E  E  E  E  E  E   
--------------------------|--------------------------|
--------------------------|--------------------------|
--------------------------|--9--9--9--9--9--9--9--9--|
--0--0--0--0--2--2--2--2--|--------------------------|
 
 
  E  E  E  E  E  E  E  E     E  E  E  E  E  E  E  E   
--------------------------|--------------------------|
--------------------------|--------------------------|
--9--9--9--9--9--9--9--9--|--5--5--5--5--5--5--5--5--|
--------------------------|--------------------------|
 
 
  E  E  E  E  E  E  E  E     E  E  E  E  E  E  E  E   
--------------------------|--------------------------|
--------------------------|--------------------------|
--7--7--7--7--7--7--7--7--|--9--9--9--9--9--9--9--9--|
--------------------------|--------------------------|
 
 
  E  E  E  E  E  E  E  E     E  E  E  E  E  E  E  E     E  Q     E  E  E  Q     
--------------------------|--------------------------|-----------------7--9----|
--------------------------|--------------------------|-----6s----9--9----------|
--9--9--9--9--9--9--9--9--|--5--5--5--5--5--5--5--5--|--7----------------------|
--------------------------|--------------------------|-------------------------|
 
 
  E  E  E  E  E  E  E  E     E  E  E  E  E  E  E  E   
--------------------------|--------------------------|
--------------------------|--------------------------|
--9--9--9--9--9--9--9--9--|--9--9--9--9--9--9--9--9--|
--------------------------|--------------------------|
 
 
  E  E  E  E  E  E  E  E     E  E  E  E  E  E  E  E   
--------------------------|--------------------------|
--------------------------|--------------------------|
--5--5--5--5--5--5--5--5--|--7--7--7--7--7--7--7--7--|
--------------------------|--------------------------|
 
 
  E  E  E  E  E  E  E  E     E  E  E  E  E  E  E  E   
--------------------------|--------------------------|
--------------------------|--------------------------|
--9--9--9--9--9--9--9--9--|--9--9--9--9--9--9--9--9--|
--------------------------|--------------------------|
 
 
                                               g      
  E  E  E  E  E  E  E  E     E  E  E  E  E  E  Q      
--------------------------|--------------------------|
--------------------------|--------------------------|
--5--5--5--5--5--5--5--5--|--7--7--7--7--7--7--7\----|
--------------------------|--------------------------|
 
 
  E  E  E  E  E  E  E  E     E  E  E  E  E  E  Q       E  E  E  E  E  E  E  E   
--------------------------|-------------------------|--------------------------|
--------------------------|-------------------------|--------------------------|
--------------------------|-------------------------|--------------------------|
--4--4--4-----4--4--4-----|--4--4--4--4--4--2--L----|--4--4--4-----4--4--4-----|
 
 
  E  E  E  E  E  E  Q       E  E  E  E  E  E  E  E     E  E  E  E  E  E  Q     
-------------------------|--------------------------|-------------------------|
-------------------------|--------------------------|-------------------------|
-------------------------|--------------------------|-------------------------|
--4--4--4--4--4--2--L----|--4--4--4-----4--4--4-----|--4--4--4-----4--4--2----|
 
 
  E  E  E  E  E  E  E  E     E  E  E  E  E  E  Q       E  E  E  E  E  E  E  E   
--------------------------|-------------------------|--------------------------|
--------------------------|-------------------------|--------------------------|
--------------------------|-------------------------|--------------------------|
--4--4--4-----4--4--4-----|--4--4--4--4--4--2--L----|--4--4--4--4--4--4--4--4--|
 
 
  E  E  E  E  E  Q.         E  E  E  E  E  E  E  E     E  E  E  E  E  Q.       
-------------------------|--------------------------|-------------------------|
-----------------7\------|--------------------------|-----------------7\------|
-------------------------|--------------------------|-------------------------|
--4--4--4--4--4----------|--4--4--4--4--4--4--4--4--|--4--4--4--4--4----------|
 
 
  E  E  E  E  E  E  E  E     E  E  E  E  E  Q.         E  E  E  E  E  E  E  E   
--------------------------|-------------------------|--------------------------|
--------------------------|-----------------7\------|--------------------------|
--------------------------|-------------------------|--------------------------|
--4--4--4--4--4--4--4--4--|--4--4--4--4--4----------|--4--4--4--4--4--4--4--4--|
 
 
  E  E  E  E  E  E  E  E     W                   W                 
--------------------------|-------------------|-------------------|
--------------------------|-------------------|-------------------|
--------------------------|-------------------|-------------------|
--4--4--4--4--2--2--2--2--|--0----------------|--L----------------|
 
 
  W                   W                   W                   W                 
-------------------|-------------------|-------------------|-------------------|
-------------------|-------------------|-------------------|-------------------|
-------------------|-------------------|-------------------|-------------------|
--2----------------|--L----------------|--4----------------|--L----------------|
 
 
  W                   W                   W                   W                 
-------------------|-------------------|-------------------|-------------------|
-------------------|-------------------|-------------------|-------------------|
-------------------|-------------------|-------------------|-------------------|
--2----------------|--L----------------|-------------------|-------------------|
 
 
  W                   W                   W                   W                 
-------------------|-------------------|-------------------|-------------------|
-------------------|-------------------|-------------------|-------------------|
-------------------|-------------------|-------------------|-------------------|
-------------------|-------------------|-------------------|-------------------|
 
 
  H        Q       E  E  E  E  E  E  E  E     E  E  E  E  E  E  E  E   
----------------|--------------------------|--------------------------|
----------------|--------------------------|--------------------------|
----------------|--------------------------|--------------------------|
----------------|--0--0--0--0--0--0--0--0--|--0--0--0--0--0--0--0--0--|
 
 
  E  E  E  E  E  E  E  E     E  E  E  E  E  E  E  E   
--------------------------|--------------------------|
--------------------------|--------------------------|
--------------------------|--------------------------|
--2--2--2--2--2--2--2--2--|--2--2--2--2--2--2--2--2--|
 
 
  E  E  E  E  E  E  E  E     E  E  E  E  E  E  E  E   
--------------------------|--------------------------|
--------------------------|--------------------------|
--------------------------|--------------------------|
--4--4--4--4--4--4--4--4--|--4--4--4--4--4--4--4--4--|
 
 
  E  E  E  E  E  E  E  E     E  E  E  E  E  E  E  E   
--------------------------|--------------------------|
--------------------------|--------------------------|
--------------------------|--------------------------|
--2--2--2--2--2--2--2--2--|--2--2--2--2--2--2--2--2--|
 
 
  E  E  E  E  E  E  E  E     E  E  E  E  E  E  E  E   
--------------------------|--------------------------|
--------------------------|--------------------------|
--------------------------|--------------------------|
--0--0--0--0--0--0--0--0--|--0--0--0--0--0--0--0--0--|
 
 
  E  E  E  E  E  E  E  E     E  E  E  E  E  E  E  E   
--------------------------|--------------------------|
--------------------------|--------------------------|
--------------------------|--------------------------|
--2--2--2--2--2--2--2--2--|--2--2--2--2--2--2--2--2--|
 
 
  E  E  E  E  E  E  E  E     E  E  E  E  E  E   Q     
--------------------------|--------------------------|
--------------------------|--------------------------|
--------------------------|--------------------/9----|
--4--4--4--4--4--4--4--4--|--4--4--4--4--4--4--------|
 
 
  E  E  E  E  E  E  E  E     E  E  E  E  E  E  E  E   
--------------------------|--------------------------|
--------------------------|--------------------------|
--7--7--7--7--7--7--7--7--|--7--7--7--7--7--7--7--7--|
--------------------------|--------------------------|
 
 
  E  E  E  E  E  E  E  E     E  E  E  E  E  E  E  E   
--------------------------|--------------------------|
-----------7--7--7--------|-----7--7--7--------7--7--|
--5--5--5-----------5--5--|--5-----------5--5--------|
--------------------------|--------------------------|
 
 
  E  E  E  E  E  E  E  E     E  E  E  E  E  E  Q        E  Q.     Q     E  E   
--------------------------|--------------------------|------------------------|
-----------9--9--9--7--7--|--7--6--6--6--------------|------------------------|
--7--7--7-----------------|--------------9--9--7\----|------------------------|
--------------------------|--------------------------|-----4------4\-------4--|
 
 
  Q    Q     E  E  E  E     Q    Q     E  Q.        Q    E  E  H         
-------------------------|-----------------------|----------------------|
-------------------------|-----------------------|----------------------|
-------------------------|-----------------------|----------------------|
--L----4\-------4-----4--|--L----4\-------4------|--4-------4--L--------|
 
 
  W                   Q    Q     H           W                 
-------------------|----------------------|-------------------|
-------------------|----------------------|-------------------|
-------------------|-------4s----9--------|--L----------------|
--L----------------|--L-------------------|-------------------|
 
 
  W                   W                   W                              
-------------------|-------------------|-------------------|-----|-----||
-------------------|-------------------|-------------------|-----|-----||
-------------------|-------------------|-------------------|-----|-----||
-------------------|-------------------|-------------------|-----|-----||
 
 
 
 
Duration Legend
---------------
W - whole
H - half
Q - quarter
E - 8th
S - 16th
T - 32nd
X - 64th
. - note dotted
|-n-|  - n-tuplets
 
 
Tablature Legend
----------------
L - tied note
x - dead note
g - grace note
(n) - ghost note
> - accentuded note
NH - natural harmonic
AH - artificial harmonic
TH - tapped harmonic
SH - semi harmonic
PH - pitch harmonic
h - hammer on
p - pull off
b - bend
br - bendRelease
pb - preBend
pbr - preBendRelease
brb - bendReleaseBend
\n/ - tremolo bar dip
\n - tremolo bar dive
-/n - tremolo bar Release up
/n\ - tremolo bar inverted dip
/n - tremolo bar return
-\n - tremolo bar Release down
S - shift slide
s - legato slide
/ -  slide into from below or out of upwards
\ -  slide into from above or out of downwards
~ - vibrato
W - wide vibrato
tr - tril'
TP - tremolo picking
T - tapping
S - slap
P - pop
< - fade in
^ - brush up
v - brush down

Добавлено: 15.05.2012
Другие материалы по этой песне:

Страница создана 15.05.2012
http://primanota.ru/alice-nine/velvet-chords.htm
Привет, Гость.
Предлагаем пройти революционный курс по гитаре.
Подарок от PrimaNota.Ru, забирай!