PrimaNota.ru - самый крупный в мире бесплатный архив песенных текстов, аккордов, табулатур и нот


Alice Nine - Subete E - таба, видео

Регистрация Запомнить меня
Войти через:  Facebook Google Twitter Vk Yandex Mail.ru

Alice Nine - Subete E - таба, видео

Печатать
Просмотров: 95
-----------------------------------------------------------------
 Subete E - Alice Nine
-----------------------------------------------------------------
Tabbed by: Charlotte Fennell
Email: charliecure87@aol.com

Tuning: Drop D (DADGBE)

Updated 29/8/12: Gave the tab an overhaul, should sound a bit better!
Updated 22/8/12: Solos added!

Intro (1:18):

e|---------------------------------------------------------------|
B|---------------------------------------------------------------|
G|---------------------------------------------------------------|
D|-7-/-12-\-0---4--9--7--5--6--7--7--12--4--9--7--5--7-----------|
A|-7-/-12-\-0---4--9--7--5--6--7--7--12--4--9--7--5--7-----------|
E|-7-/-12-\-0---4--9--7--5--6--7--7--12--4--9--7--5--7-----------|

Solo (1:21):

e|--14-12--------------------------------------------------------|
B|--------14-15b17-15-14\10-12\7-10/5-8b10-8-7-------------------|
G|---------------------------------------------------------------|
D|---------------------------------------------------------------|
A|---------------------------------------------------------------|
E|---------------------------------------------------------------|

e|--14-12--------------------------------------------------------|
B|--------14-15b17-15-14\10-12\7-10/5----------------------------|
G|---------------------------------------------------------------|
D|---------------------------------------------------------------|
A|---------------------------------------------------------------|
E|---------------------------------------------------------------|

1:42:

e|---------------------------------------------------------------|
B|---------------------------------------------------------------|
G|-7---------6-7----------7-9----------9--11--11--12--11---------|
D|-7---------6-7----------7-9----------9--11--11--12--11---------|
A|-5---------4-5----------5-7----------7--9---9---10--9----------|
E|---------------------------------------------------------------|
     PM .....    PM .....     PM .....

e|---------------------------------------------------------------|
B|---------------------------------------------------------------|
G|-6---------6-7----------7-9----------9--11--11--12--11---------| x2
D|-6---------6-7----------7-9----------9--11--11--12--11---------|
A|-4---------4-5----------5-7----------7--9---9---10--9----------|
E|---------------------------------------------------------------|
     PM .....    PM .....     PM .....

e|---------------------------------------------------------------|
B|---------------------------------------------------------------|
G|-6---------6-7----------7-9----------9-------------------------|
D|-6---------6-7----------7-9----------9-------------------------|
A|-4---------4-5----------5-7----------7---9-9--10--9------------|
E|---------------------------------------------------------------|
     PM .....    PM .....     PM .....

Verse (2:03):

e|---------------------------------------------------------------|
B|---------------------------------------------------------------|
G|-7-----------7-7----------7-7----------7-7-------7-------------|
D|-7-----------7-7----------7-7----------7-7-------7-------------|
A|-5-----------5-5----------5-5----------5-5-------5-------------|
E|---------------------------------------------------------------|
      PM .....     PM .....     PM .....     PM ..   PM ..

e|---------------------------------------------------------------|
B|---------------------------------------------------------------|
G|---------------------------------------------------------------|
D|-9-----------9-9------------9-9------------9-9-9-7-7-7---------|
A|-9-----------9-9------------9-9------------9-9-9-7-7-7---------|
E|-9-----------9-9------------9-9------------9-9-9-7-7-7---------|
      PM .....       PM .....       PM ..... 

e|---------------------------------------------------------------|
B|---------------------------------------------------------------|
G|---------------------------------------------------------------|
D|-0-----------0-0------------0-0------------0-0-------0---------|
A|-0-----------0-0------------0-0------------0-0-------0---------|
E|-0-----------0-0------------0-0------------0-0-------0---------|
      PM .....       PM .....       PM .....     PM ..   PM ..

e|---------------------------------------------------------------|
B|---------------------------------------------------------------|
G|---------------------------------------------------------------|
D|-9-----------9-9------------9-9------------9-9-9-7-7-7---------|
A|-9-----------9-9------------9-9------------9-9-9-7-7-7---------|
E|-9-----------9-9------------9-9------------9-9-9-7-7-7---------|
      PM .....       PM .....       PM .....  

Pre-Chorus (2:24):

e|---------------------------------------------------------------|
B|---------------------------------------------------------------|
G|---------------------------------------------------------------|
D|--5-------5----------5-5--4-------4----------4-4--2------------|
A|--5-------5----------7-5--4-------4----------6-4--2------------|
E|--5-------5----------5-5--4-------4----------4-4--2------------|
      PM ..   PM .....        PM ..   PM .....         PM .. 

e|---------------------------------------------------------------|
B|---------------------------------------------------------------|
G|---------------------------------------------------------------|
D|--2----------4-2--7-7-7-7-7------------------------------------|
A|--2----------4-2--7-7-7-7-7------------------------------------|
E|--2----------2-2--7-7-7-7-7------------------------------------|  
      PM .....

Chorus (2:33):

e|---------------------------------------------------------------|
B|---------------------------------------------------------------|
G|---------------------------------------------------------------|
D|--12-16-11-9-7-5-4-2-7-5-7-9-7-5-2-7-0-------------------------|
A|--12-16-11-9-7-5-4-2-7-5-7-9-7-5-2-7-0-------------------------|
E|--12-16-11-9-7-5-4-2-7-5-7-9-7-5-2-7-0-------------------------|

Post-Chorus (3:05):

e|---------------------------------------------------------------|
B|--10 (adlib)---------------------------------------------------|
G|---------------------------------------------------------------|
D|-----12\5--------5-5-6--------6-6-7------7-7---4--------4------|
A|-----12\5--------5-5-6--------6-6-7------7-7---4--------4------|
E|-----12\5--------5-5-6--------6-6-7------7-7---4--------4------|
            PM ....      PM ....    PM ....        PM ....

3:16:

e|---------------------------------------------------------------|
B|---------------------------------------------------------------|
G|-6---------6-7----------7-9----------9--11--11--12--11---------| x2
D|-6---------6-7----------7-9----------9--11--11--12--11---------|
A|-4---------4-5----------5-7----------7--9---9---10--9----------|
E|---------------------------------------------------------------|
     PM .....    PM .....     PM .....

3:26:

e|---------------------------------------------------------------|
B|---------------------------------------------------------------|
G|---------------------------------------------------------------|
D|---------------------------------------------------------------|
A|----------------0-2-0-2-4-5-5----(x8)--------------------------|
E|--0-4-5-0-5-7-0------------------------------------------------|

3:48:

e|---------------------------------------------------------------|
B|---------------------------------------------------------------|
G|---------------------------------------------------------------|
D|--5-------5----------5-5--4-------4----------4-4--2------------|
A|--5-------5----------7-5--4-------4----------6-4--2------------|
E|--5-------5----------5-5--4-------4----------4-4--2------------|
      PM ..   PM .....        PM ..   PM .....         PM .. 

e|---------------------------------------------------------------|
B|---------------------------------------------------------------|
G|---------------------------------------------------------------|
D|--2----------4-2--7-------7----------7-7-----------------------|
A|--2----------4-2--7-------7----------9-7-----------------------|
E|--2----------2-2--7-------7----------7-7-----------------------|  
      PM .....        PM ..   PM .....

Chorus (4:09):

e|---------------------------------------------------------------|
B|---------------------------------------------------------------|
G|---------------------------------------------------------------|
D|-12--16--11--9--9-9-7-5--4--2--7--5--7--9-7-5--2-7-9--7-5-7-9--|
A|-12--16--11--9--9-9-7-5--4--2--7--5--7--9-7-5--2-7-9--7-5-7-9--|
E|-12--16--11--9--9-9-7-5--4--2--7--5--7--9-7-5--2-7-9--7-5-7-9--|

e|---------------------------------------------------------------|
B|---------------------------------------------------------------|
G|---------------------------------------------------------------|
D|--11/12--12---5--7---------------------------------------------|
A|--11/12--12---5--7---------------------------------------------|
E|--11/12--12---5--7---------------------------------------------|

Outro (4:40):

e|---------------------------------------------------------------|
B|---------------------------------------------------------------|
G|---------------------------------------------------------------|
D|-12-16--11--9--7--5--6--7---12--16-9--7--5--7---12-16--9--7--5-|
A|-12-16--11--9--7--5--6--7---12--16-9--7--5--7---12-16--9--7--5-|
E|-12-16--11--9--7--5--6--7---12--16-9--7--5--7---12-16--9--7--5-|

e|---------------------------------------------------------------|
B|---------------------------------------------------------------|
G|---------------------------------------------------------------|
D|--6-7---12--16--9--7--5--7--12---------------------------------|
A|--6-7---12--16--9--7--5--7--12---------------------------------|
E|--6-7---12--16--9--7--5--7--12---------------------------------|

Solo (4:40):

e|---------------------------------------------------------------|
B|---------------------------------------------------------------|
G|-------------------14---14-16b18-16-14-------------------------|
D|-14h16--(x4)-14-12---16----------------16-17-17-16-14-11-12-14-|
A|---------------------------------------------------------------|
E|---------------------------------------------------------------|

e|---------------------------------------------------------------|
B|--------------14/16-14-----------------------------------------|
G|------------14--------14--------------/19-18-16-14h16p14-12-14-|
D|-14h16-14h16------------14b16-14-12-11-------------------------|
A|---------------------------------------------------------------|
E|---------------------------------------------------------------|

e|------------------------------------------------12/14-12b14\---|
B|---------------12-14-15-17-14h15h17-(x10)-17/19----------------|
G|-11-12-11-12-14------------------------------------------------|
D|---------------------------------------------------------------|
A|---------------------------------------------------------------|
E|---------------------------------------------------------------|

e|-14-17-17b19-17----------17------------------------------------|
B|----------------19-17-19----15-14h15p14-12-14-12-10-12-12/14---|
G|---------------------------------------------------------------|
D|---------------------------------------------------------------|
A|---------------------------------------------------------------|
E|---------------------------------------------------------------|

e|---------------------------------------------------------------|
B|-12h14p12------------------------------------------------------|
G|----------12h14-11-12-11--11-12-11-12-11-6-7/9-11-12-----------|
D|---------------------------------------------------------------|
A|---------------------------------------------------------------|
E|---------------------------------------------------------------|

e|---------------------------------------------------------------|
B|---------------------------------------------------------------|
G|-12b14--11h12p11-9h11p9-7h9p7-6h7p6--4--6--7-------------------|
D|-------------------------------------5--7--0-------------------|
A|---------------------------------------------------------------|
E|---------------------------------------------------------------|

5:31:

e|---------------------------------------------------------------|
B|---------------------------------------------------------------|
G|------7-(x7)-7\------------------------------------------------|
D|--12\-7------7\------------------------------------------------|
A|--12\-5------5\------------------------------------------------|
E|--12\----------------------------------------------------------|

| /  slide up
| \  slide down
| h  hammer-on
| p  pull-off
| ~  vibrato
| +  harmonic
| x  Mute note
Добавлено: 25.06.2013
Другие материалы по этой песне:
  • Аккорды и текст

Страница создана 25.06.2013
http://primanota.ru/alice-nine/subete-e-chords.htm
Привет, Гость.
Предлагаем пройти революционный курс по гитаре.
Подарок от PrimaNota.Ru, забирай!