PrimaNota.ru - самый крупный в мире бесплатный архив песенных текстов, аккордов, табулатур и нот


Alice Nine - Shunkashuutou - таба, бас-таба, видео

Регистрация Запомнить меня
Войти через:  Facebook Google Twitter Vk Yandex Mail.ru

Alice Nine - Shunkashuutou - таба, бас-таба, видео

Печатать
Просмотров: 241
 ;----------------------------------------------;
 | Artist: Alice Nine                           |
 |----------------------------------------------|
 | Title:  Shunkashuutou                        |
 |----------------------------------------------|
 | Tabbed by: nheryui93                         |
 ;----------------------------------------------;

Solo:
 (03:01-03:21)
|---------------------|
|-6/9-------9-9p11----|
|-----6-5-6--------6--|
|---------------------|
|---------------------|
|---------------------|

|----------------------|
|------------9----9----|
|-6-5-6-8p10---10---10-|
|----------------------|
|----------------------|
|----------------------|

|-----------------------------|
|-----------------------------|
|-8-6-5-6-5-----------------8-|
|-----------8-6-8-6-8-6-8-6---|
|-----------------------------|
|-----------------------------|

|-------------------------|
|-----9p11-9-------9p11-9-|
|-5-6--------5-5-6--------|
|-------------------------|
|-------------------------|
|-------------------------|

|---------------------|
|-6-7-9-----6-9p11-9~-|
|-------6\5-----------|
|---------------------|
|---------------------|
|---------------------|

I cant decide which of two, sounds better
So ive made another tab for solo
If you find errors (and you probably will), please suggest corrections.
      Thanks.....

Note:
-----------------------------------------------------------|
----------------------Another Tab--------------------------|
-----------------------------------------------------------|

Solo:
 (03:01-03:21)
|-1/4-------4p6---|
|-----2-1-2-----2-|
|-----------------|
|-----------------|
|-----------------|
|-----------------|

|-------------4---4---|
|-2-1-2-4-4p6---6---6-|
|---------------------|
|---------------------|
|---------------------|
|---------------------|

|-----------------------------|
|-4-2-1-2-1-------------------|
|-----------3-1-3-1-3-1-3-1---|
|---------------------------3-|
|-----------------------------|
|-----------------------------|

|-----4p6-4-------4p6-4-|
|-1-2-------1-1*-2------|
|-----------------------|
|-----------------------|
|-----------------------|
|-----------------------|

|-1-2p4-----1-4p6-4~-|
|-------2-1----------|
|--------------------|
|--------------------|
|--------------------|
|--------------------|
Добавлено: 31.07.2012
Другие материалы по этой песне:

Страница создана 25.06.2012
http://primanota.ru/alice-nine/shunkashuutou-chords.htm
Привет, Гость.
Предлагаем пройти революционный курс по гитаре.
Подарок от PrimaNota.Ru, забирай!