PrimaNota.ru - самый крупный в мире бесплатный архив песенных текстов, аккордов, табулатур и нот


Alice Nine - Rainbows Live - таба, видео

Регистрация Запомнить меня
Войти через:  Facebook Google Twitter Vk Yandex Mail.ru

Alice Nine - Rainbows Live - таба, видео

Печатать
Просмотров: 158
Уроки эстрадного вокала в Санкт-Петербурге
Alice Nine - Rainbows 
Untitled Vandal[ism] Live version solos

Tora
Solo:
e|----------------------------------10--------------|
B|-------------------------------------10-12br-10---|
G|-12b-12pbr-10----10-----10-12-12br-------------9~-|
D|--------------12----12----------------------------|
A|--------------------------------------------------|
D|--------------------------------------------------|

e|-10-----------------------------------------------|
B|----10-13b--1010----------------------------------|
G|-----------------12b-10-12p10------------2-2-2-2~-|
D|------------------------------12---3-5-3----------|
A|--------------------------------------------------|
E|--------------------------------------------------|


Hiroto
End Solo:
e|------------------------------------------------------------------------|
B|-------------------------------------------------------------13--13--13-|
G|-12b-12b-12b-12brp10-------------10----10----10-12-12b-12b-pb12pb12pb12-|
D|--------------------12~--10h11h12----12----12---------------------------|
A|------------------------------------------------------------------------|
D|------------------------------------------------------------------------|

e|----13-12----15-13-15-15b-15b-15b15b15b-|
B|----------13----------------------------|
G|-5\-------------------------------------|
D|----------------------------------------|
A|----------------------------------------|
D|----------------------------------------|

(repeat as necessary)
e|--------------------------------------------------------------|
B|-t13-10-t15-10-8--t13-10-8--t15-10-8--t13-10-8--t15-10-t13-10-|
G|--------------------------------------------------------------|
D|--------------------------------------------------------------|
A|--------------------------------------------------------------|
E|--------------------------------------------------------------|

e|----------------------------------------------------|
B|----------------------------13---13--13--13--13--13-|
G|---10-10-9-10-10b-10-12-12b-12bpb12pb12pb12pb12pb12-|
D|-7--------------------------------------------------|
A|----------------------------------------------------|
D|----------------------------------------------------|

| /   slide up
| \   slide down
| h   hammer-on
| p   pull-off
| ~   vibrato
| +   harmonic
| x   Mute note
| b   Bend
| pb  Pre-bend
| br  Bend release
| pbr Pre-bend release
| brb Bend release bend
Добавлено: 24.04.2012
Другие материалы по этой песне:
  • Аккорды и текст

Страница создана 24.04.2012
http://primanota.ru/alice-nine/rainbows-live-chords.htm
Привет, Гость.
Предлагаем пройти революционный курс по гитаре.
Подарок от PrimaNota.Ru, забирай!