PrimaNota.ru - самый крупный в мире бесплатный архив песенных текстов, аккордов, табулатур и нот


Alice Nine - Gemini I The Void - таба, видео

Регистрация Запомнить меня
Войти через:  Facebook Google Twitter Vk Yandex Mail.ru

Alice Nine - Gemini I The Void - таба, видео

Печатать
Просмотров: 181
-----------------------------------
         Gemini I: The Void
-----------------------------------

Tabbed by: RordOfTheMBKT

Tuning: Drop D

I do not have the guitar solo or some of the acoustic guitar parts in some places,
but this is everything else. 
Some of it may be incorrect, so feel free to expand on this if you need to.

Enjoy!


[Intro]
e|--------------------------------------------------------------------------|
B|--------------------------------------------------------------------------|
G|--------------------------------------------------------------------------|
D|--------------------------------------------------------------------------|
A|------------7h8------------5h3------------7h8------------1p0--------------|
D|-000-0-0-000----000-0-0-0-0----000-0-0-000----000-0-0-0-0-----------------|

e|--------------------------------------------------------------------------|
B|--------------------------------------------------------------------------|
G|--------------------------------------------------------------------------|
D|--------------------------------------------------------------------------|
A|------------7h8------------1p0------------7h8-----------------------------|
D|-000-0-0-000----000-0-0-0-0----000-0-0-000----000-0-0-0-06----------------|

e|----------------------|
B|----------------------|
G|----------------------|
D|----------------------|
A|------------7h8-0-0-0-|
D|-000-0-0-000----0-0-0-|


[@ 0:14]
e|--------------------------------------------------------------------------|
B|--------------------------------------------------------------------------|
G|--------2333---------------------2333--------5h4p0------------------------|
D|-0003000-----00030002h3p2-0003000-----0003000-----------------------------|
A|--------------------------------------------------------------------------|
D|--------------------------------------------------------------------------|

e|--------------------------------------------------------------------------|
B|--------------------------------------------------------------------------|
G|--------2333---------------------2333-------------------------------------|
D|-0003000-----00030002h3p2-0003000-----------------------------------------|
A|-------------------------------------0-0-0--------------------------------|
D|-------------------------------------0-0-0--------------------------------|


[@ 0:25]
e|------------------------------------------------------|
B|------------------------------------------------------|
G|------------------------------------------------------|
D|------------------------------------------------------|
A|-------------------------------------------------3p2--|
D|-000700007888-000700002h3p2-000700007888-00070000---3-|

e|-------------------------------------------------|
B|-------------------------------------------------|
G|-------------------------------------------------|
D|-------------------------------------------------|
A|-----------------------------------------0-0-0-0-|
D|-000700007888-000700002h3p2-000700007888-0-0-0-0-|


[@ 0:37]
e|--------------------------------------------------------------------------|
B|--------------------------------------------------------------------------|
G|--------2333--------------------------------------------------------------|
D|-0003000-----00030002h3p2-------------------35----------------------------|
A|-----------------------------70503-00-0---03------------------------------|
D|--------------------------00070503-00-0-03--------------------------------|

e|--------------------------------------------------------------------------|
B|--------------------------------------------------------------------------|
G|--------2333--------------------------------------------------------------|
D|-0003000-----00030002h3p2-------------------------------------------------|
A|-----------------------------70503-00-0-----------------------------------|
D|--------------------------00070503-00-0-2h3p2-----------------------------|


[@ 0:50]
e|-----------------------b9-------------------------------------------------|
B|--------------------------------------------------------------------------|
G|--------------------------------------------------------------------------|
D|--------------------------------------------------------------------------|
A|-5--3--2-2------00-0--0----5--3--7-777777772223337777777777---------------|
D|-5--3--2-22h3p2-00-0--0----5--3--7-777777772223337777777777---------------|


[Chorus @ 1:04]
e|-----------------------------------------------------------------------------|
B|-----------------------------------------------------------------------------|
G|-10--9--9--7--15--10--12--14--10--9--9--12--15--17--15--14-12-10-9-----------|
D|-----------------------------------------------------------------------------|
A|-8---7--7--5--13--8---10--12--8---7--7--10--13--15--13--12-10-8--7-----------|
D|-----------------------------------------------------------------------------|      

e|--------------------------------------------------------------------------|
B|--------------------------------------------------------------------------|
G|--------------------------------------------------------------------------|
D|--------------------------------------------------------------------------|
A|----1-----------1-----------1--------0--0--0--------5-5\0-----------------|
D|-0-----3--2--0-----3--2--0-----3--2--0--0--0--------5-5\0-----------------|


[2:05]
e|-14---------------------------------------------------------------------|
B|-15---------------------------------------------------------------------|
G|-14---------------------------------------------------------------------|
D|--------------------557788----------------------557788-------3h5\1h3p0--|
A|-----------14\000000-------0000003h5\1h3p0-000000-------000000----------|
D|-----------14\----------------------------------------------------------|

e|-14-----------------------------------------------------------------------|
B|-15-----------------------------------------------------------------------|
G|-14-----------------------------------------------------------------------|
D|---------3-------5577888------------------------5577888-+7-+7-------------|
A|-----------000000-------0000003h5\1h3p0-00000000--------------------------|
D|-------------------------------------------------------7--7--7------------|


[@ 3:11]
e|--------------------------------------------------------------------------|
B|--------------------------------------------------------------------------|
G|----------------------4444/111111\999/141414\999/111111\99976-------------|
D|--------------------------------------------------------------------------|
A|-5--7--9--2--5--7--9--2222/9-9-9-\777/121212\777/9-9-9-\77754-------------|
D|-5--7--9--2--5--7--9------------------------------------------------------|

e|--------------------------------------------------------------------------|
B|--------------------------------------------------------------------------|
G|--------------------------------------------------------------------------|
D|--------------------------------------------------------------------------|
A|-5--7--9--11----0--7--9---------------------------------------------------|
D|-5--7--9--11----0--7--9---------------------------------------------------|


************************************

| /   slide up
| \   slide down
| h   hammer-on
| p   pull-off
| ~   vibrato
| +   harmonic
| x   Mute note
| b   Bend
| pb  Pre-bend
| br  Bend release
| pbr Pre-bend release
| brb Bend release bend

************************************

Добавлено: 19.05.2012
Другие материалы по этой песне:
  • Аккорды и текст

Страница создана 19.05.2012
http://primanota.ru/alice-nine/gemini-i-the-void-chords.htm
Привет, Гость.
Предлагаем пройти революционный курс по гитаре.
Подарок от PrimaNota.Ru, забирай!