PrimaNota.ru - самый крупный в мире бесплатный архив песенных текстов, аккордов, табулатур и нот


Alice In Chains - Stone - текст песни, таба, видео

Регистрация Запомнить меня
Войти через:  Facebook Google Twitter Vk Yandex Mail.ru

Alice In Chains - Stone - текст песни, таба, видео

Печатать
Просмотров: 338
Авторы музыки: Jerry Cantrell
Авторы текста: Jerry Cantrell
-------------------------------------------------------------------------------
                            Alice In Chains-Stone
-------------------------------------------------------------------------------
Tabbed by: Jaytee805
E-mail: jaytee805@gmail.com

Thanks to:
tydogg2443 for help with the bend on the verse.
DundeeShamrock for a correction on the solo.

Tuning: Drop C#

Intro is just bass, then the guitar comes in playing the same part:

e|-----------------------------------------------------------------------------|
B|-----------------------------------------------------------------------------|
G|-----------------------------------------------------------------------------|
D|-----------------------------------------------------------------------------|
A|-----------------------------------------------------------------------------|
E|--3^5^3--2--2-2--0-1-2--0-1--3^5^3--2-2-2--0-1-2--0-1------------------------|
                   x x x  x x                x x x  x x

After four times of the main part on guitar, the bend comes in:
e|-----------------------------------------------------------------------------|
B|-------11^12-----------------------------------------------------------------|
G|-----------------------------------------------------------------------------|
D|-----------------------------------------------------------------------------|
A|-----------------------------------------------------------------------------|
E|-----------------------------------------------------------------------------|

Play the verse the same as the intro
I'm not sure about the second part, so I'll leave it to somebody else
Chorus has the intro part along with the bend, and this little thing in the background:
e|-----------------------------------------------------------------------------|
B|-------------------------10-11-----------------------------------------------|
G|----8-9-11-12-11-9-8-12------------------------------------------------------|
D|-----------------------------------------------------------------------------|
A|-----------------------------------------------------------------------------|
E|-----------------------------------------------------------------------------|

After the second chorus, it goes to this thing:
e|-----------------------------------------------------------------------------|
B|-----------------------------------------------------------------------------|
G|-----------------------------------------------------------------------------|
D|-----------------------------------------------------------------------------|
A|-----------------------------------------------------------------------------|
E|---0-1-2-3---0-2-3--5-6-5--2-------------------------------------------------|

It jams on that for a while, then hits the solo:
e|-----------------------------------------------------------------------------|
B|---7h8p7h8p7--7--------------------------------------------------------------|
G|----------------7------------------------------------------------------------|
D|-----------------9--9-7-5h7p5-4-5-4------------------------------------------|
A|-------------------------------------7---------------------------------------|
E|-----------------------------------------------------------------------------|

e|---------------------------------------------12------------------------------|
B|---7h8p7h8p7--7--------------------------------------------------------------|
G|----------------7---7/9--9-11-12-11-9-12-9--9--------------------------------|
D|-----------------9-----------------------------------------------------------|
A|-----------------------------------------------------------------------------|
E|-----------------------------------------------------------------------------|

e|---19-15---------------------------------------------------------------------|
B|---------19-15-------------------------------10/12---------------------------|
G|---------------16--------9-11-12-11-9\8-9/11-------9-------------------------|
D|------------------17-16------------------------------------------------------|
A|-----------------------------------------------------------------------------|
E|-----------------------------------------------------------------------------|

e|--19-15----------------------------------------------------------------------|
B|--------19-19------------------16^17-----------------------------------------|
G|-------------19-14-14^15^14--------------------------------------------------|
D|-----------------------------------------------------------------------------|
A|-----------------------------------------------------------------------------|
E|-----------------------------------------------------------------------------|


Here is the part behind the solo:
e|-----------------------------------------------------------------------------|
B|-----------------------------------------------------------------------------|
G|---4---4-5---5-7--9------4---4-2---2-----------------------------------------|
D|---4---4-5---5-7--9------4---4-2---2-5---2-----------------------------------|
A|---2---2-3---3-5--7------2---2-0---0-5---2-----------------------------------|
E|-------------------------------------5---2-----------------------------------|

e|-----------------------------------------------------------------------------|
B|-----------------------------------------------------------------------------|
G|---4---4-5---5-7--9-----7----2-----------------------------------------------|
D|---4---4-5---5-7--9-----7----2-----------------------------------------------|
A|---2---2-3---3-5--7-----5----0-----------------------------------------------|
E|-----------------------------------------------------------------------------|

Then it comes back with another verse and finishes on the chorus
************************************

| /   slide up
| \   slide down
| h   hammer-on
| p   pull-off
| ~   vibrato
| +   harmonic
| x   Mute note
| b   Bend
| pb  Pre-bend
| br  Bend release
| pbr Pre-bend release
| brb Bend release bend

************************************

E-mail me if you got any questions or tab requests! All styles of music are cool man!
Добавлено: 16.09.2013
Другие материалы по этой песне:

Страница создана 13.09.2013
http://primanota.ru/alice-in-chains/stone-chords.htm
Привет, Гость.
Предлагаем пройти революционный курс по гитаре.
Подарок от PrimaNota.Ru, забирай!