PrimaNota.ru - самый крупный в мире бесплатный архив песенных текстов, аккордов, табулатур и нот


Alice In Chains - Sickman - аккорды и текст, таба, бас-таба, видео

Регистрация Запомнить меня
Войти через:  Facebook Google Twitter Vk Yandex Mail.ru

Alice In Chains - Sickman - аккорды и текст, таба, бас-таба, видео

Печатать
Просмотров: 283
Уроки эстрадного вокала в Санкт-Петербурге
Авторы музыки: Jerry Cantrell, Layne Staley
Авторы текста: Jerry Cantrell, Layne Staley
Sickman
Alice In Chains
tune half step down
use these riffs thru the song. listen yourself for structure and timing.
all riffs are here. no solo, sorry.

riffs
Intro
----------------------------
----------------------------
--11-}-dive with------------
--11-}---bar----------------
--------------------117----
----------------------------
riff 1
   . . . . . . . . . . . . . . . . . . . . . . . . . . . . . . . .
-------------------------------------------------------------------
-------------------------------------------------------------------
-------------------------------------------------------------------
-------------------------------------------------------------------
----------3-3-3-------3-------3-----------3-3-3-------3-------3----
--2-2-2-2-------2-2-2---2-2-2---2-2-2-2-2-------2-2-2---2-2-2---2--
fill 1 (under riff 1 first time. fade out)
-------------------------------------------------------------------
-------------------------------------------------------------------
-------------------------------------------------------------------
-7-------7-------7-------7-------7-------7-------7-----------------
-------------------------------------------------------------------
-------------------------------------------------------------------
riff 2 (chorus)
    . . . .     . . . .     . .
-------------------------------------------------------------------
-------------------------------------------------------------------
------------------------------------------7-7-8-------7-7----------
-----------3-3---------3-3-----3--7-7-7-7-8-8---5-5-5-5-5-3-3-3----
-----------1-1---------1-1-----1-----------------------------------
---0-0-0-0-----0-0-0-0-----0-0-------------------------------------
riff 3 (slower, with fill 2, vibrato all notes)
     ah      ah      ah      ah
----------------------------------
---/10-----/10------10------10----
---/-8-----/-8-------8-------8----
----------------------------------
----------------------------------
----------------------------------
fill 2              one and
---half-->-----half---half---half----
-15^-----(15)15^-~~-15^----17^->(17)-
-------------------------------------
-------------------------------------
-------------------------------------
-------------------------------------
riff 4
----------------------------------------------------------------------------------------
------4-----4-----4-----4-----4-----4-----4--------3---------------4-----4-----4-----4--
----2-----2-----2-----2-----2-----2-----2----------2---------2~--2-----2-----2-----2----
--------1-----------0-----------1------------5--5--0---half----1-----------0------------
--0-----------0-----------0-----------0------3--3--0--3^---0---------0-----------0------
----------------------------------------------------------------------------------------

[--------------------------------0------------------------------------0----
------4-----4--------3----------0------------------------------------0----
----2-----2----------2----------------------------------------------------
--1------------5--5--0-------------------3-----2------------quarter-------
--------0------3--3--0---half----------5-----4----5--5--7--5^-------------
------------------------3^---0-------6-----5------3--3--5--3^-----0-------]
              ah, what's the difference, I'll die.
fill 3 (under last bar of riff 4)
--------half------------------------------
---half-^--->half-------------------------
--9^---------------9--7---7~~~~----------
------------------------------------------
------------------------------------------
------------------------------------------
that's all I have. I got bored and didn't tab the rest of the song, maybe later.
have you noticed that I write "maybe later" to all my tabs? maybe later means
probably never. :)
Добавлено: 24.10.2013
Другие материалы по этой песне:

Страница создана 18.03.2012
http://primanota.ru/alice-in-chains/sickman-chords.htm
Привет, Гость.
Предлагаем пройти революционный курс по гитаре.
Подарок от PrimaNota.Ru, забирай!