PrimaNota.ru - самый крупный в мире бесплатный архив песенных текстов, аккордов, табулатур и нот


Alice In Chains - Heroin - таба, видео

Регистрация Запомнить меня
Войти через:  Facebook Google Twitter Vk Yandex Mail.ru

Alice In Chains - Heroin - таба, видео

Печатать
Просмотров: 115
HEROIN - Alice In Chains

It's in fact a demo for the song Real Thing.
Alright this is one of my first tabs, so i'm not 100% sure of it!

There is solo licks all over the song, some are tabbed here, but for the rest of it.
I think the scales are A pentatonic and E pentatonic, you can use wah and your whammy bar.

This song is pretty easy to play, exept for the kick ass solo licks ! :)

MAIN RIFF (intro and verses)
eb|-----------|-----------|-----------|----------|
Bb|-----------|-----------|-----------|----------|
Gb|-----------|-----------|-----------|----------|
Db|-----------|-----------|-----------|----------|
Ab|--7-5------|--7-5------|--7-5------|--7-5-----|
Eb|0------0-1-|0------0-1-|0------0-1-|0------0-1|

eb|--------------|-----------|-----------|----------|
Bb|--------------|-----------|-----------|----------|
Gb|--------------|-----------|-----------|----------|
Db|75757---------|-----------|-----------|----------|
Ab|-----7-5------|--7-5------|--7-5------|--7-5-----|
Eb|----------0-1-|0------0-1-|0------0-1-|0------0-1|


eb|-------------|-----------|-----------|----------|
Bb|-------------|-----------|-----------|----------|
Gb|----7~-------|-----------|-----------|----------|
Db|----7~-------|-----------|-----------|----------|
Ab|-------------|--7-5------|--7-5------|--7-5-----|
Eb|0--x-----0-1-|0------0-1-|0------0-1-|0------0-1|


eb|---------------|-----------|-----------|----------|
Bb|---------------|-----------|-----------|----------|
Gb|---------------|-----------|-----------|----------| repeat this one
Db|75757----------|-----------|-----------|----------| when the lyrics starts
Ab|------7-5------|--7-5------|--7-5------|--7-5-----| with some licks here 
Eb|-----------0-1-|0------0-1-|0------0-1-|0------0-1| and there.

If you wanna get this heavier just play this:
eb|-----------|-----------|-----------|----------|
Bb|-----------|-----------|-----------|----------|
Gb|-----------|-----------|-----------|----------|
Db|--7-5------|--7-5------|--7-5------|--7-5-----|
Ab|--7-5------|--7-5------|--7-5------|--7-5-----|
Eb|0------0-1-|0------0-1-|0------0-1-|0------0-1|


2nd RIFF: (from 0:51 to 0:57)
eb|-----------|-----------|-----------|-----------|
Bb|-----------|-----------|-----------|-----------|
Gb|-----------|-----------|-----------|-----------|
Db|-7/9-99--7-|-7/9-99--7-|-7/9-99--7-|-7/9-99--7-|
Ab|-7/9-99--7-|-7/9-99--7-|-7/9-99--7-|-7/9-99--7-|
Eb|-5/7-77-05-|-5/7-77-05-|-5/7-77-05-|-5/7-77-05-|


Then you go back to the intro riff:
eb|-----------|-----------|-----------|----------|
Bb|-----------|-----------|-----------|----------|
Gb|-----------|-----------|-----------|----------|
Db|-----------|-----------|-----------|----------|
Ab|--7-5------|--7-5------|--7-5------|--7-5-----|
Eb|0------0-1-|0------0-1-|0------0-1-|0------0-1|

eb|--------------|-----------|-----------|----------|
Bb|--------------|-----------|-----------|----------|
Gb|--------------|-----------|--5--------|----------|
Db|75757---------|-----------|---75------|----------|
Ab|-----7-5------|--7-5------|-----7-----|--7-5-----|
Eb|----------0-1-|0------0-1-|0------0-1-|0------0-1|


2nd RIFF:
eb|-----------|-----------|-----------|-----------|
Bb|-----------|-----------|-----------|-----------|
Gb|-----------|-----------|-----------|-----------|
Db|-7/9-99--7-|-7/9-99--7-|-7/9-99--7-|-7/9-99--7-|
Ab|-7/9-99--7-|-7/9-99--7-|-7/9-99--7-|-7/9-99--7-|
Eb|-5/7-77-05-|-5/7-77-05-|-5/7-77-05-|-5/7-77-05-|


Then a 3rd riff: (chorus)
eb|------------|------------|------------|------------|
Bb|------------|------------|------------|------------|
Gb|------------|------------|------------|------------|
Db|-4-44-44-44-|x5-55-55-55-|x4-44-44-44-|x5-55-55-55-|
Ab|-4-44-44-44-|x5-55-55-55-|x4-44-44-44-|x5-55-55-55-|
Eb|-2-22-22-22-|x3-33-33-33-|x2-22-22-22-|x3-33-33-33-|


Main riff:
eb|-----------|-----------|-----------|----------|
Bb|-----------|-----------|-----------|----------|
Gb|-----------|-----------|-----------|----------|
Db|-----------|-----------|-----------|----------|
Ab|--7-5------|--7-5------|--7-5------|--7-5-----|
Eb|0------0-1-|0------0-1-|0------0-1-|0------0-1|


3rd RIFF: (chorus)
eb|------------|------------|------------|------------|
Bb|------------|------------|------------|------------|
Gb|------------|------------|------------|------------|
Db|-4-44-44-44-|x5-55-55-55-|x4-44-44-44-|x5-55-55-55-|
Ab|-4-44-44-44-|x5-55-55-55-|x4-44-44-44-|x5-55-55-55-|
Eb|-2-22-22-22-|x3-33-33-33-|x2-22-22-22-|x3-33-33-33-|


Main riff:
eb|-----------|-----------|-----------|----------|
Bb|-----------|-----------|-----------|----------|
Gb|-----------|-----------|-----------|----------|
Db|-----------|-----------|-----------|----------|
Ab|--7-5------|--7-5------|--7-5------|--7-5-----|
Eb|0------0-3-|0------0-3-|0------0-3-|0------0-3|

I think you can guess the rest of the song, it's pretty much the same thing! :)

And finaly you end the song like with the main riff palm muted:

Main riff:
eb|------------|------------|------------|-----------|
Bb|------------|------------|------------|-----------|
Gb|------------|------------|------------|-9~-let ---|
Db|------------|------------|------------|-9~-ring---|
Ab|---7x5------|---7x5------|---7x5------|-7~--------|
Eb|0-x-----0-3-|0-x-----0-3-|0-x-----0-3-|-----------|

"Sexual chocolate, baby!"
Добавлено: 13.07.2013
Другие материалы по этой песне:
  • Аккорды и текст

Страница создана 13.07.2013
http://primanota.ru/alice-in-chains/heroin-chords.htm
Привет, Гость.
Предлагаем пройти революционный курс по гитаре.
Подарок от PrimaNota.Ru, забирай!