PrimaNota.ru - самый крупный в мире бесплатный архив песенных текстов, аккордов, табулатур и нот


alice hawthorne - Whispering Hope - таба, видео

Регистрация Запомнить меня
Войти через:  Facebook Google Twitter Vk Yandex Mail.ru

alice hawthorne - Whispering Hope - таба, видео

Печатать
Просмотров: 55
-------------------------------------------------------------------------------
                        whispering hope - Alice Hawthorne 
-------------------------------------------------------------------------------
Tabbed by:
E-mail:
key of Bb
Tuning:E-A-D-G-B-e

e|---------------------------------------------------------------------------|
B|---------------------------------------------------------------------------|
G|------------3----2--0--------------------0---------------------------------|
D|-3----3-3---0----3--1--3-0----1---1---1--1--3---1--0-----0----0--0--0--1---|
A|-5----5-5--------------5-1----3---3---3-----5---3--1-----1----1--1--1--3---|
E|---------------------------------------------------------------------------|
  soft as a voice of an angel breathing a lesson unheard hope with a gentle  
e|---------------------------------------------------------------------------|
B|------------------------------------3--------------------------------------|
G|----0--3-----------------2---0--2------------------------------------3--2--|
D|-3--1--5----3---3----3---1---1--1---0----3----3----3---3--2-----1--0-3--3--|
A|-5----------5---5----5-------------------5----5----5---5--4--------1-------|
E|---------------------------------------------------------------------------|
  persuasion whispers her comforting word wait till the darkness is over wait 
e|---------------------------------------------------------------------------|
B|---------------------------3---3---3---3-----------------------------------|
G|-2----2----2--3---0--------------------0-2------0-----3--------------------|
D|-3----3----2------2---3----0---0---0-----3------1--3--3--0--0--0----3-1----|
A|----------------------0----------------------------5-----1--1--1----5-3---3|
E|--------------------------------------------------------------------------5|
  till the tempest is done hope for the sunshine tomorrow after the shower is 
e|---------------------------------------------------------------------------|
B|---------------------------------------------------------------------------|
G|---------------------------------------------------------------------------|
D|---------------------------------------------------------------------------|
A|-1-------------------------------------------------------------------------|
E|---------------------------------------------------------------------------|
  gone
e|---------------------------------------------------------------------------|
B|------------------------------1-------1----3-------------------------------|
G|-------------0-2--3----2--3-------3-------------0-2----3-------------------|
D|--------3--3------0---------------0---2----3---------------3----0--1-------|
A|--------0------------------------------------------------------------------|
E|---------------------------------------------------------------------------|
chorus: whispering hope oh how welcome thy voice making my heart in it's 
e|---------------------------------------------------------------------------|
B|---------------------------------------------------------------------------|
G|---------------------------------------------------------------------------|
D|---------------------------------------------------------------------------|
A|-0-------0--1--------------------------------------------------------------|
E|----3----------------------------------------------------------------------|
  sorrow rejoice 

verse 2
if in the dusk of the twilight dim be region afar
will not the deepness brighten the glimmering star
then when the night is upon us why should 6he heart sing away
when the dark dark midnight is over watch for the breaking of day

verse 3
hope is an anchor so steadfast rends the dark veil for the soul 
whither the master has entered robing the grave of it's goal
come then o come glad fruition come to my weary sad heart 
come o thou blest hope of glory never o never depart  

************************************

| /   slide up
| \   slide down
| h   hammer-on
| p   pull-off
| ~   vibrato
| +   harmonic
| x   Mute note
| b   Bend
| pb  Pre-bend
| br  Bend release
| pbr Pre-bend release
| brb Bend release bend

************************************
Добавлено: 08.06.2016
Другие материалы по этой песне:
  • Аккорды и текст

Страница создана 07.06.2016
http://primanota.ru/alice-hawthorne/whispering-hope-chords.htm
Привет, Гость.
Предлагаем пройти революционный курс по гитаре.
Подарок от PrimaNota.Ru, забирай!