PrimaNota.ru - самый крупный в мире бесплатный архив песенных текстов, аккордов, табулатур и нот


Alice Cooper - Years Ago - текст песни, таба, видео

Регистрация Запомнить меня
Войти через:  Facebook Google Twitter Vk Yandex Mail.ru

Alice Cooper - Years Ago - текст песни, таба, видео

Печатать
Просмотров: 146


Song Title: Years Ago
Album: Welcome To My Nightmare
Artist: Alice Cooper
Words and Music by Alice Cooper and Dick Wagner
Tabbed by: Rory MacKenzie

Intro                                                 2x
||:0-------8---|4-------5---|0-----------|------------:||
||:----0---0---|----0---0---|----0---0---|----0---0---:||
||:----5---5---|----5---5---|----5---5---|----5---5---:||
||:------------|------------|------------|------------:||
||:0-----------|------------|0-----------|------------:||
||:------------|0-----------|------------|0-----------:||

                                                      2x
||:----0---0---|----0---0---|----0---0---|----0---0---:||
||:----0---0---|----0---0---|----0---0---|----0---0---:||
||:----5---5---|----5---5---|----5---5---|----5---5---:||
||:--7---------|--7---------|--7---------|--7---------:||
||:0-----------|------------|0-----------|------------:||
||:------------|0-----------|------------|0-----------:||
V1 Here    I    go      a    gain
   up      and down     a    lone,

V2  All    My    toys    are  broken   and   so
am    I     in side Mom                  the,

V3 I'm    a     lit     tle  boy                   No
I'm    a     great    big man                   No,
  |----1---1---|----1---1---|----1---1---|----1---1---|
|----3---3---|----3---3---|----3---3---|----3---3---|
|----2---2---|----2---2---|----2---2---|----2---2---|
|0-----------|------------|------------|------------|
|------------|4-----------|3-----------|3-----------|
|------------|------------|------------|------------|
V1 all      my  friends went home
V2 car      ni  val     has  closed
V3 Let's    be lit      tle  boys                for a

  |------1-1---|--------1---|------------|------------|
|------3-3---|----3-------|3-----------|------------|
|------1-1---|------------|----1-------|------------|
|------------|3-----------|------------|------------|
|1-----------|------------|--------1---|------------|
|------------|------------|------------|------------|
V1 years ago
V2 years ago
V3 little while longer maybe an hour   No steven we have to go back now

  |------0-0---|---------0---|------------|-----------|
|------3-3---|-----3-------|3-----------|-----------|
|------1-1---|-------------|----1-------|-----------|
|------------|2------------|------------|-----------|
|------------|-------------|--------2---|-----------|
|0-----------|-------------|------------|-----------|
                               isn't that our mom calling



Ending
||:----0---0---|----0---0---|----0---0---|----0---0---:||
||:----0---0---|----0---0---|----0---0---|----0---0---:||
||:----5---5---|----5---5---|----5---5---|----5---5---:||
||:--7---------|--7---------|--7---------|--7---------:||
||:0-----------|------------|0-----------|------------:||
||:------------|0-----------|------------|0-----------:||
   Steven
   Steven
   Steven                    Come home
                                        Steven Come Home


Добавлено: 09.01.2014
Другие материалы по этой песне:

Страница создана 28.02.2012
http://primanota.ru/alice-cooper/years-ago-chords.htm
Привет, Гость.
Предлагаем пройти революционный курс по гитаре.
Подарок от PrimaNota.Ru, забирай!