PrimaNota.ru - самый крупный в мире бесплатный архив песенных текстов, аккордов, табулатур и нот


Alice Cooper - Unfinished Sweet - текст песни, таба, видео

Регистрация Запомнить меня
Войти через:  Facebook Google Twitter Vk Yandex Mail.ru

Alice Cooper - Unfinished Sweet - текст песни, таба, видео

Печатать
Просмотров: 194
Уроки эстрадного вокала в Санкт-Петербурге
Авторы: Neal Smith, Michael Bruce, Alice Cooper

Song: Unfinished Sweet
Band: Alice Cooper
Album: Billion Dollar Babies
Year: 1973
Tabbed by DoteStudios
Email is manbearpisreal@gmail.com

Keys
b = bend
r = release
\ = slide up neck 
/ = slide down neck
h = hammer-on
p = pull-off
w = whammy bar
v = vibrato
< > = strike the notes in between the symbols while in the bend
D = strum down
U = strum up

Guitar 3 (Glen Buxton) (Wah-Wah pedal)
E-----------------------------------------------------------------|
B-----------------------------------------------------------------|
G-----------------------------------------------------------------|
D-----------------------------------------------------------------|
A-----------------------------------------------------------------|
E-5---5---5---5---5---5---5---5---5---5---5---5---5---5---5---5---|

Mick enters and Glen leaves
Guitar 1 (Mick Mashbir)
E-2--2--2--2---0----------------2--2--2--2---0-----------------|
B-3--3--3--3---2----------------3--3--3--3---2-----------------|
G-2--2--2--2---2----------------2--2--2--2---2-----------------|
D--------------------------------------------------------------|
A--------------------------------------------------------------|
E--------------------------------------------------------------|

Mike enters…
Guitar 1
E-2--2--2--2---0----------------2--2--2--2---0-----------------|
B-3--3--3--3---2----------------3--3--3--3---2-----------------|
G-2--2--2--2---2----------------2--2--2--2---2-----------------|
D--------------------------------------------------------------|
A--------------------------------------------------------------|
E--------------------------------------------------------------|

Guitar 2 (Mike Bruce)
E--------------------------5-----------------------------5-----|
B-------------------7--7---x----------------------7--7---x-----|
G-------------------7--7---6----------------------7--7---6-----|
D-------------------7--7---7----------------------7--7---7-----|
A-------------------5--5---7----------------------5--5---7-----|
E--------------------------5-----------------------------5-----|

Guitars 1 and 2
       D  U  D
E-------------------------------------------------------------------------|
B-----------------------------------------------------------7--7--7--7--7-|
G-10--10-10-10--10-------10---------------7--7--7--7--7--7--7--7--7--7--7-|
D-10--10-10-10--10--10---10--10----/7--7--7--7--7--7--7--7--7--7--7--7--7-|
A--8---8--8--8---8--10----8--10----/5--5--5--5--5--5--5--5--5--5--5--5--5-|
E--------------------8--------8-------------------------------------------|

“Candy everywhere, got chocolate in my hair 	   Aching to get me
Stickly sweet suckers in the halloween air	   Aching to get me
Saint vitus dance on my molars tonight		   Aching to get me”
Guitar 1
E-------------------------------------------------2--2--2--2---0------------------|
B--------2--2h3p2-------------------2-------------3--3--3--3---2------------------|
G---2---------------2-----2-----/2-----0----------2--2--2--2---2------------------|
D---2------------------2-----2----------------------------------------------------|
A---0-----------------------------------------------------------------------------|
E---------------------------------------------------------------------------------|

Guitar 2
E----------------------------------------------------------------------------5----|
B---------------------------------------------------------------------7--7---5----|
G---------------------------------------------------------------------7--7---6----|
D---7-------5---7---------7----7----7---5-----------------------------7--7---7----|
A---7-------5---7---------7----7----7---5-----------------------------5--5---7----|
E---5-------3---5---------5----5----5---3------------------------------------5----|
Play the above parts 3x

“Ach-ing  to get  me,   get me,  oooooh…”
Guitars 1 and 2
       D  U  D
E-------------------------------------------------------------------------|
B-----------------------------------------------------------7--7--7--7--7-|
G-10--10-10-10--10-------10---------------7--7--7--7--7--7--7--7--7--7--7-|
D-10--10-10-10--10--10---10--10----/7--7--7--7--7--7--7--7--7--7--7--7--7-|
A--8---8--8--8---8--10----8--10----/5--5--5--5--5--5--5--5--5--5--5--5--5-|
E--------------------8--------8-------------------------------------------|

“Take it to the doc, I guess he ought to know,  La, da, da, da, da”
Guitar 1
E-------------------------------------------------2--2--2--2---0------------------------------|
B--------2--2h3p2-------------------2-------------3--3--3--3---2------------------------------|
G---2---------------2-----2-----/2-----0----------2--2--2--2---2------------------------------|
D---2------------------2-----2----------------------------------------------------------------|
A---0-----------------------------------------------------------------------------------------|
E---------------------------------------------------------------------------------------------|

Guitar 2
E----------------------------------------------------------------------------5----------------|
B---------------------------------------------------------------------7--7---5----------------|
G---------------------------------------------------------------------7--7---6----------------|
D---7-------5---7---------7----7----7---5-----------------------------7--7---7----------------|
A---7-------5---7---------7----7----7---5-----------------------------5--5---7----------------|
E---5-------3---5---------5----5----5---3------------------------------------5----------------|

Guitar 3 (Wah-wah pedal)
E---------------------------------------------------------------------------------12----------|
B----------------------------------------------------------------------10--12b14-hold-14r12---|
G-----------------------------------------------------------------/11-------------------------|
D---------------------------------------------------------------------------------------------|
A---------------------------------------------------------------------------------------------|
E---------------------------------------------------------------------------------------------|

“Which ones can stay, which one gotta go,	  La, da, da, da, da”
Guitar 1
E-------------------------------------------------2--2--2--2---2------------------------|
B--------2--2h3p2-------------------2-------------3--3--3--3---2------------------------|
G---2---------------2-----2-----/2-----0----------2--2--2--2---0------------------------|
D---2------------------2-----2----------------------------------------------------------|
A---0-----------------------------------------------------------------------------------|
E---------------------------------------------------------------------------------------|

Guitar 2
E----------------------------------------------------------------------------5----------|
B---------------------------------------------------------------------7--7---5----------|
G---------------------------------------------------------------------7--7---6----------|
D---7-------5---7---------7----7----7---5-----------------------------7--7---7----------|
A---7-------5---7---------7----7----7---5-----------------------------5--5---7----------|
E---5-------3---5---------5----5----5---3------------------------------------5----------|

Guitar 3
E---------------------------------------------------------------------------------------|
B---------------------------------------------------------------------------------------|
G---------------------------------------------------------------------------------------|
D----------------------------------------------------------------------9---9p7-----7----|
A-------------------------------------------------------------------------------9-------|
E---------------------------------------------------------------------------------------|

“He looks in my mouth  and  he starts to gloat”
Guitars 1 and 2 
E----------------------------------------------------------------------|
B--------------------------------------------------------------7-------|
G---------------------------9/11--11--11--11--11--11--11--11---7-------|
D--9--9--9--9--9--9--9--9---9/11--11--11--11--11--11--11--11---7-------|
A--9--9--9--9--9--9--9--9---7/-9---9---9---9---9---9---9---9---5-------|
E--7--7--7--7--7--7--7--7----------------------------------------------|

“Says my teeth are ok, but my gums got to go”

“Ooooooh	     Ooooooh			   Ooooooooh”
Guitar 1
E---------------------------------------------------------------------|
B---------------------------------------------------------------------|
G-7b9---------------7b9-----------------------5-----7b9---------------|
D-7b9---------------7b9---------------5h7--7--5--7--7b9---------------|
A-------------------------------------5h7--7-----7--------------------|
E---------------------------------------------------------------------|

E---------------------------------------------------------------------|
B---------------------------------------------------------------------|
G---------5-----7b9-----------------------5-----7b9----7---5----------|
D-5h7--7--5--7--7b9---------------5h7--7--5--7--7b9----7---5--5---7---|
A-5h7--7-----7--------------------5h7--7-----7----------------5---7---|
E---------------------------------------------------------------------|

E----------------------------|
B----------------------------|
G-5------7b9----7---5--------|
D-5--7---7b9----7---5---5----|
A----7------------------5----|
E----------------------------|

Then rhythm guitar and bass come in after the above part…
Guitar 2 and Bass
E---------------------------------------|
B---------------------------------------|
G---------------------------------------|
D-------------1--2---------------3--2---|
A-0--0--3--3---------0--0--3--3---------|
E---------------------------------------|

Then lead guitar returns (but rhythm and bass continue the above riff)…
Guitar 1
  D  D U D  D   D   D  D U D  D   D
E---------------------------------------|
B---------------------------------------|
G---------------------------------------| 3x
D---------------------------------------|
A-0--2-2-2--2---0---0--3-3-3--3---2-----|
E---------------------------------------|

Guitar 1
E------------------------------------------3---2-----------------------|
B--------------------------------------1---------------------------13--|
G----------------------------------2--------------------------14-------|
D---------5---4-----0---2----------------------------------------------|
A-0---3----------------------------------------------------------------|
E----------------------------------------------------------------------|

E-15---14-------------------5-------5------7-------7------8-------8----|
B--------------16--17\----------5------5-------5------5-------6------6-|
G----------------------------------------------------------------------|
D----------------------------------------------------------------------|
A----------------------------------------------------------------------|
E----------------------------------------------------------------------|

E--10-----8---7----5-------5------7-------7------8-------8------10-----|
B----------------------5------5-------5------5-------6------6----------|
G----------------------------------------------------------------------|
D----------------------------------------------------------------------|
A----------------------------------------------------------------------|
E----------------------------------------------------------------------|

E-8---7----5-------5------7-------7------8-------8------10-----8---7---|
B--------------5------5-------5------5-------6------6------------------|
G----------------------------------------------------------------------|
D----------------------------------------------------------------------|
A----------------------------------------------------------------------|
E----------------------------------------------------------------------|

E---------------------------|
B-8-----10--------7---------|
G-------10--------7---------|
D---------------------------|
A---------------------------|
E---------------------------|

Guitar 1
E-----------------------------------------------------------3--2--------|
B-------------------------------------------------------1---------------|
G---------------------------------------------------2-------------------|
D-----------------------------5---4-------------------------------------|
A-0---3---------------0---3---------------------------------------------|
E-----------------------------------------------------------------------|

E--------------15---14---------------|
B---------13---------------16--17\---|
G----14------------------------------|
D------------------------------------|
A------------------------------------|
E------------------------------------|

Guitar 2
E-17-17-17-17-17-17-17-17-17-17-17-17-17-17-17-17-17-17-17-17-17-17-17…-|
B-----------------------------------------------------------------------|
G-----------------------------------------------------------------------|
D-----------------------------------------------------------------------|
A-----------------------------------------------------------------------|
E-----------------------------------------------------------------------|

Guitars 1 and 2
E-5----------------------------------------5------|
B-5----------------7-----------------------5------|
G-6-----1---6------7-----------------------6------|
D-7-----2---7------7-----------------------7------|
A-7-----2---7------5-----------------------7------|
E-5-----0---5------------------------------5------|

Keyboard (performed live, optional)
E-5-----------------------------------|
B------5------------------------------|
G-----------6-------------------------| played from the
D----------------7--------------------| D chord above
A---------------------7----4----------|
E-------------------------------5\----|

Guitar 1 (Wah-wah pedal)
E------------------------------------------------------------------|
B------------------------------------------------------------------|
G------------------------------------------------------------------|
D------------------------------------------------------------------|
A------------------------------------------------------------------|
E-5---5---5---5---5---5---5---5---5---5---5---5---5---5---5---5…---|

Guitar 2 enters…
Guitar 1 (Wah-wah pedal)
E-------------------------------12--------------------------------------|
B-----------------------/12b14-hold-14r12--10\--------------------------|
G-----------------------------------------------------------------------|
D-----------------------------------------------------------------------|
A-----------------------------------------------------------------------|
E-----------------------------------------------------------------------|

Guitar 2
E-2--2--2--2---0-------------------------------------2--2--2--2---0-----|
B-3--3--3--3---2-------------------------------------3--3--3--3---2-----|
G-2--2--2--2---2-------------------------------------2--2--2--2---2-----|
D-----------------------------------------------------------------------|
A-----------------------------------------------------------------------|
E-----------------------------------------------------------------------|

Guitar 1 (Wah-wah pedal) (I think this guitar is using a slide too)
E-----------------------------------------------------------------------|
B---/14---14--14---14--14---14--14\-------------------------------------|
G-------------------------------14\-------------------------------------|
D-----------------------------------------------------------------------|
A-----------------------------------------------------------------------|
E-----------------------------------------------------------------------|

Guitar 2
E-----------------------------------------2--2--2--2---0----------------|
B-----------------------------------------3--3--3--3---2----------------|
G-----------------------------------------2--2--2--2---2----------------|
D-----------------------------------------------------------------------|
A-----------------------------------------------------------------------|
E-----------------------------------------------------------------------|

Guitar 1
E--------5-----------------------------5------|
B-7--7---x----------------------7--7---x------|
G-7--7---6----------------------7--7---6------|
D-7--7---7----------------------7--7---7------|
A-5--5---7----------------------5--5---7------|
E--------5-----------------------------5------|

Guitar 2
E-------------2--2--2--2---0------------------|
B-------------3--3--3--3---2------------------|
G-------------2--2--2--2---2------------------|
D---------------------------------------------|
A---------------------------------------------|
E---------------------------------------------|

“I come off the gas but I'm still seeing spies	 Aching to get me
I can see them all through a glassy pair of eyes Aching to get me
De sades gonna live in my mouth tonight          La, da, da, da, da
And the rotten tooth fairy is satisfied          La, da, da, da, da”
Guitar 1
E-2--2--2--2---0---------------------------------2--2--2--2---0-------------------|
B-3--3--3--3---2---------------------------------3--3--3--3---2-------------------|
G-2--2--2--2---2---------------------------------2--2--2--2---2-------------------|
D---------------------------------------------------------------------------------|
A---------------------------------------------------------------------------------|
E---------------------------------------------------------------------------------|

Guitar 2
E--------------------------------------------------------------------------5------|
B------------------------------------------------------------------7--7----x------|
G------------------------------------------------------------------7--7----6------|
D---------------------7----7----7---5------------------------------7--7----7------|
A---------------------7----7----7---5------------------------------5--5----7------|
E---------------------5----5----5---3--------------------------------------5------|
Play the above parts 4x

“Aching to get me, get me”		“Ooooooooh…”
Guitar 1
E------------------------------------|-10-------------------------------------------------|
B--------------------------------7---|------10------------(repeat)------------------------|
G-10--10--10--10-------10--------7---|------------11---------------(Fades out, Fades in)--|
D-10--10--10--10--10---10--10----7---|-----------------12---------------------------------|
A--8---8---8---8--10----8--10----5---|----------------------------------------------------|
E------------------8--------8--------|----------------------------------------------------|

Guitar 2
E------------------------------------|------------------------------------------------------|
B--------------------------------7---|-8--7--8--7--8--7--8--(repeat)------------------------|
G-10--10--10--10-------10--------7---|-------------------------------(Fades out, Fades in)--|
D-10--10--10--10--10---10--10----7---|------------------------------------------------------|
A--8---8---8---8--10----8--10----5---|------------------------------------------------------|
E------------------8--------8--------|------------------------------------------------------|

Guitars 1 and 2
       D  U  D
E-----------------------------------------|
B----------------------------------7------|
G-10--10-10-10--10-------10--------7------|
D-10--10-10-10--10--10---10--10----7------|
A--8---8--8--8---8--10----8--10----5------|
E--------------------8--------8-----------|

“OOOOOOooooh…oooh…oooh…shh oh"
Добавлено: 07.03.2012
Другие материалы по этой песне:
  • Аккорды и текст

Страница создана 07.03.2012
http://primanota.ru/alice-cooper/unfinished-sweet-chords.htm
Привет, Гость.
Предлагаем пройти революционный курс по гитаре.
Подарок от PrimaNota.Ru, забирай!