PrimaNota.ru - самый крупный в мире бесплатный архив песенных текстов, аккордов, табулатур и нот


Alice Cooper - The Awakening - текст песни, таба, видео

Регистрация Запомнить меня
Войти через:  Facebook Google Twitter Vk Yandex Mail.ru

Alice Cooper - The Awakening - текст песни, таба, видео

Печатать
Просмотров: 116


Song Title: The Awakening
Album: Welcome To My Nightmare
Artist: Alice Cooper
Words and Music by Alice Cooper, Bob Ezrin and Dick Wagner
Tabbed by: Rory MacKenzie

                                  1.____________________ 2._____________________
||:---------------|---------------|----------|--------:|||----------|----------|
||:---------------|---------------|----------|--------:|||----------|----------|
||:---------------|---------------|----------|--------:|||----------|----------|
||:---------------|---------------|----------|--------:|||0---------|2----4----|
||:---------------|---------------|2---------|--------:|||----------|----------|
||:2--------------|3--------------|----------|2-------:|||----------|----------|
I  wake up in the  basement I'm so hungry I'm dry    I
   must be here sleep walking                              mustn't I

|----------------|----------------|----------------|----------------|
|----------------|----------------|----------------|----------------|
|--0-0-0-0-0-0-0-|0-0-0-0-0-0-0-0-|0-0-0-0-0-0-0-0-|--0-0-0-0-0-0-0-|
|4---------------|----------------|----------------|4---------------|
|----------------|----------------|----------------|0---------------|
|3---------------|----------------|----------------|3---------------|

|-------------------|--------------10--|
|-------------------|------------------|
|-------------------|------------------|
|3---12-10--8-6-5-3-|2-5-10----12------|
|1---13-12-10-8-7-5-|3-7-10------------|
|3------------------|------------------|
                                                         1.___________________
||:----------------|----------------|-------------------|--------------10--:||
||:----------------|----------------|-------------------|------------------:||
||:--0-0-0-0-0-0-0-|--0-0-0-0-0-0-0-|-------------------|------------------:||
||:4---------------|4---------------|3---12-10--8-6-5-3-|2-5-10----12------:||
||:----------------|0---------------|1---13-12-10-8-7-5-|3-7-10------------:||
||:3---------------|3---------------|3------------------|------------------:||
 Getting up from my easy chair looking for my wife
 following  a trail of crimson spots that lead into the night

2._____________________ Am (Strum)            Am (Maj7) (Strum)
-----------------------|0---------------------|0---------------------------|
-----------------------|1---------------------|1---------------------------|
-----------------------|2---------------------|1---------------------------|
-----------------------|2---------------------|2---------------------------|
---------0--2----0-----|0---------------------|0---------------------------|
0--2--4-------------4--|--------=-------------|----------------------------|
                        Suddenly I realize  I see it all through real eyes These

Dm (Strum)                         B7 (Strum)       C      C/B     Am7    C/G
1---------------------------------|2---------------|0------0------|0--------------|
3---------------------------------|4---------------|1----1-1-----1|1---0----------|
2---------------------------------|2---------------|0---0--0---0--|0--2-2-0-------|
0---------------------------------|4---------------|2------2------|2--------------|
----------------------------------|2--------------2|3------2------|0--------------|
----------------------------------|2------5-2-4-5--|--------------|-----------3---|
crimson spots are dripping from my hands        and Oh

Fmaj7
0-----------------------|--------------2-|-----------------|--------------------|
1--1--1-----------------|-----------1----|-----------------|------3--------3^---|
2--------2--------------|----------------|3--0-------------|0--2-----0--2---2^0-|
3-----------3--3--------|------4---------|------2----------|0-------------------|
3-----------------------|---3------------|---------4--2----|--------------------|
1-----------------------|2---------------|-----------------|--------------------|
Makes me feel like a man

---------------|----------------|-----------------|
---------------|----------------|-----------------|
---------------|--0-0-0-0-0-0-0-|0-0-0-00-0-0-0-0-|
4----2----4----|4---------------|-----------------|
5--------------|----------------|-----------------|
---------------|3---------------|3----------------|

Repeat and Fade
||:----------------|----------------|-------------------|--------------10--:||
||:----------------|----------------|-------------------|------------------:||
||:0-0-0-0-0-0-0-0-|--0-0-0-0-0-0-0-|-------------------|------------------:||
||:----------------|4---------------|3---12-10--8-6-5-3-|2-5-10----12------:||
||:----------------|0---------------|1---13-12-10-8-7-5-|3-7-10------------:||
||:3---------------|3---------------|3------------------|------------------:||



Добавлено: 25.09.2013
Другие материалы по этой песне:

Страница создана 19.04.2012
http://primanota.ru/alice-cooper/the-awakening-chords.htm
Привет, Гость.
Предлагаем пройти революционный курс по гитаре.
Подарок от PrimaNota.Ru, забирай!