PrimaNota.ru - самый крупный в мире бесплатный архив песенных текстов, аккордов, табулатур и нот


Alice Cooper - Teenage Frankenstein - текст песни, таба, видео

Регистрация Запомнить меня
Войти через:  Facebook Google Twitter Vk Yandex Mail.ru

Alice Cooper - Teenage Frankenstein - текст песни, таба, видео

Печатать
Просмотров: 216
Авторы: Kane Roberts, Alice Cooper

Teenage Frankenstein
Alice Cooper

By Andrija Babovic

Intro
GUITAR 1

E-----------------------------------------------------|
B-----------------------------------------------------|
G-----------------------------------------------------|
D-----------------------------------------------------|
A----0---10---12----10----12----10---12---0---10---12-|  REPEAT TILL RIFF A
E-----------------------------------------------------|

GUITAR 2

E---15 FULL------------------------------------------------------------|
B--------------------------------12 FULL----13 TREMOLO-----------------|
G----------------------------------------------------------------------|
D------------------------------------------------------------0---------| TREMOLO
A----------------------------------------------------------------------|
E---------------0 TREMOLO----------------------------------------------|

RIFF A

E-------------------------------------------|
B-------------------------------------------|
G-------------------------------------------|   REPEAT TILL THE FIRST WORD.
D---------------5--7-------7--7--7--6-------|
A---7--7--7--7--3--5-------5--0--5--4----7--|
E---5--5--0--5---------------------------5--|

I'M THE KID ON THE BLOCK WITH MY HEAD MADE OF ROCK
I'M THE STATE OF THE ART GOT A BRAIN A LA CARTE

DO P.M DURING............................................

E---------------------------------------------------------|
B---------------------------------------------------------|
G---------------------------------------------------------|
D---------------------------------------------------------|
A--7--7--7--7--7--7--7--7--7--7--7--7--7--7--7---7--7--7--|  WITH PALM MUTE
E--5--5--5--5--5--5--5--5--5--5--5--5--5--5--5---5--5--5--|

AND I AIN'T GOT NOBODY
I MAKE THE BABIES CRY

E---------------------------------|
B---------------------------------|
G---------------------------------|
D---------------------------------|
A----7---5--------10----7---------|
E----5---3--------8-----5---------|

I AIN'T ONE OF THE CROWD  I AIN'T ONE OF THE GUYS


   WITH P.M......................................

E-----------------------------------------------------------|
B-----------------------------------------------------------|
G----------------------------------------------------5------| (THESE 2 NOTES ARE
D--7--7--7--7--7--7--7--7--7--7--7--7--7--7--7--7--------7--|  FROM KEYBOARD)
A--5--5--5--5--5--5--5--5--5--5--5--5--5--5--5--5-----------|
E-----------------------------------------------------------|


ARE MY COLOR TOO BRIGHT  ARE MY EYES SET TO WIDE     (WITH LAST RIFF)

I SPEND MY LIFE BURNING TURNING.........


E-----------------------------|
B-----------------------------|
G-----------------------------|
D-----------------------------|
A------5-------7----5-------2-|
E------3-------5----3-------0-|

I'M A TEENAGE FRANKENSTEIN ( WITH RIFF A)

THE LOCAL FREAK WITH THE TWISTED MIND
THESE AIN'T MY HANDS AND THE LEGS AIN'T MINE

E-------------------------------------------|
B-------------------------------------------|
G--------7----9-----------------------------|
D--------5----7-------------7------9--------|
A---------------------------5------7--------|
E-------------------------------------------|


BEFORE THE SOLO

E-------------------------------------|
B-------------------------------------|
G-------------------------------------|
D-------------------------------------|
A------0--0--0--2-----0---0--0--5---3-|
E-------------------------------------|
Добавлено: 28.04.2012
Другие материалы по этой песне:
  • Аккорды и текст

Страница создана 27.02.2012
http://primanota.ru/alice-cooper/teenage-frankenstein-chords.htm
Привет, Гость.
Предлагаем пройти революционный курс по гитаре.
Подарок от PrimaNota.Ru, забирай!