PrimaNota.ru - самый крупный в мире бесплатный архив песенных текстов, аккордов, табулатур и нот


Alice Cooper - Somewhere In The Jungle - текст песни, таба, видео

Регистрация Запомнить меня
Войти через:  Facebook Google Twitter Vk Yandex Mail.ru

Alice Cooper - Somewhere In The Jungle - текст песни, таба, видео

Печатать
Просмотров: 145
this is one of my favourite songs from the album dragontown!;)

guitar one:
-------------------------------------------------------------------|
-------------------------------------------------------------------|
-----7--------------------------------7----------------------------|(x2)
-7-7---6-----7----5-5-6-3----7----7-7---6---7----6-5-3---7---------|
-----5---------7---------------7------5-------7------------7-------|
-5-5---4--5-------3-3-4-1--5------5-5---4-5------4-3-1-5-----------|

the second time,the first guitar plays the rhythm above,there is a guitar fill:

-----------------------------------------------------------|
-----------------------------------------------------------|
----14---------------------14------------------------------|
-14----13--12-12-10------14----13-13-12-10-----------------|
-----------------------------------------------------------|
-----------------------------------------------------------|

when alice begins to sing i think there is only bass and drums but you can play this too:

--------------------------------------------------------------|
--------------------------------------------------------------|
--------------------------------------------------------------|
--------------------------------------------------------------|(x2)
-----5---------------------5----------------------------------|
--5-----4----3--4--1-----5---4--4-3-1-------------------------|


guitar one:
-------------------------------------------------------------------|
-------------------------------------------------------------------|
-----7--------------------------------7----------------------------|(x2)
-7-7---6-----7----5-5-6-3----7----7-7---6---7----6-5-3---7---------|
-----5---------7---------------7------5-------7------------7-------|
-5-5---4--5-------3-3-4-1--5------5-5---4-5------4-3-1-5-----------|


guitar two:
-----------------------------------------------------------|
-----------------------------------------------------------|
-----14-------------------14-------------------------------|
--14----13--12-12-10---14----13-13-12-10-------------------|
-----------------------------------------------------------|
-----------------------------------------------------------|
after that:
--------------------------------------------------------------|
--------------------------------------------------------------|
--------------------------------------------------------------|
--------------------------------------------------------------|(x2)
-----5--------------------5-----------------------------------|
--5-----4----3--4--1----5---4--4-3-1--------------------------|


guitar one:
-------------------------------------------------------------|
-------------------------------------------------------------|
-------------------------------------------------------------|
--5-5---4-44--5-55--7----------------------------------------|(x2)
--5-5-2-4-44--5-55--7----------------------------------------|
--3-3-0-2-22--3-33--5----------------------------------------|

guitar two:
-------------------------------------------------------------|
--------------15---------------------------------------------|
--14b--------------12b---------------------------------------|
-------------------------------------------------------------|(x2)
-------------------------------------------------------------|
-------------------------------------------------------------|

chorus
-------------------------------------------------------------|
-------------------------------------------------------------|
-------------------------------------------------------------|
--7--------5-------------------------------------------------|
--5--------3-------------------------------------------------|(x5)
--5--------3-------------------------------------------------|

guitar one:
-------------------------------------------------------------------|
-------------------------------------------------------------------|
-----7--------------------------------7----------------------------|
-7-7---6-----7----5-5-6-3----7----7-7---6---7----6-5-3---7---------|
-----5---------7---------------7------5-------7------------7-------|
-5-5---4--5-------3-3-4-1--5------5-5---4-5------4-3-1-5-----------|


guitar two:
-----------------------------------------------------------|
-----------------------------------------------------------|
-----14-------------------14-------------------------------|
--14----13--12-12-10---14----13-13-12-10-------------------|
-----------------------------------------------------------|
-----------------------------------------------------------|
guitar one:
--------------------------------------------------------------|
--------------------------------------------------------------|
--------------------------------------------------------------|
--------------------------------------------------------------|(x2)
-----5--------------------5-----------------------------------|
--5-----4----3--4--1----5---4--4-3-1--------------------------|

guitar one:
-------------------------------------------------------------|
-------------------------------------------------------------|
-------------------------------------------------------------|
--5-5---4-44--5-55--7----------------------------------------|(x2)
--5-5-2-4-44--5-55--7----------------------------------------|
--3-3-0-2-22--3-33--5----------------------------------------|

guitar two:
-------------------------------------------------------------|
--------------15---------------------------------------------|
--14b--------------12b---------------------------------------|
-------------------------------------------------------------|(x2)
-------------------------------------------------------------|
-------------------------------------------------------------|

chorus
-------------------------------------------------------------|
-------------------------------------------------------------|
-------------------------------------------------------------|
--7--------5-------------------------------------------------|
--5--------3-------------------------------------------------|(x5)
--5--------3-------------------------------------------------|

there is a small part with drums and effects and then:
-------------------------------------------------------------|
-------------------------------------------------------------|
-------------------------------------------------------------|
--5-5---4-----5-55--7----------------------------------------|(x4)
--5-5-2-4-----5-55--7----------------------------------------|
--3-3-0-2-----3-33--5----------------------------------------|

guitar solo:
---------------------------------------------------------------|
-------14------------------------------------------------------|
-14-14----12--12-14-14b------------------------12-14b-12-------|
-------------------------15-13-----------12-14-----------------|
---------------------------------15-12-------------------------|
---------------------------------------------------------------|

------------------------12----12-14-14b--14-15-15b--15-14-------|
---------------------------12-----------------------------------|
------14-12-----------------------------------------------------|
------14-12-----------------------------------------------------|
-15-12------12-14-12--------------------------------------------|
----------------------------------------------------------------|


--12----12---------14-14b--14-12--------------------------------|
-----12-----15-12-----------------15-12-------------------------|
----------------------------------------14----------------------|
----------------------------------------------------------------|
----------------------------------------------------------------|
----------------------------------------------------------------|

chorus
-------------------------------------------------------------|
-------------------------------------------------------------|
-------------------------------------------------------------|
--7--------5-------------------------------------------------|
--5--------3-------------------------------------------------|(x10)
--5--------3-------------------------------------------------|

outro:
-------------------------------------------------------------|
-------------------------------------------------------------|
-------------------------------------------------------------|
--5-5---4----5-55--7-----------------------------------------|(x3)
--5-5-2-4----5-55--7-----------------------------------------|
--3-3-0-2----3-33--5-----------------------------------------|

--------------------------------------------------------------|
--------------------------------------------------------------|
--------------------------------------------------------------|
-5-5---4------------------------------------------------------|
-5-5-2-4------------------------------------------------------|
-3-3-0-2------------------------------------------------------|
Добавлено: 19.05.2012
Другие материалы по этой песне:
  • Аккорды и текст

Страница создана 19.05.2012
http://primanota.ru/alice-cooper/somewhere-in-the-jungle-chords.htm
Привет, Гость.
Предлагаем пройти революционный курс по гитаре.
Подарок от PrimaNota.Ru, забирай!