PrimaNota.ru - самый крупный в мире бесплатный архив песенных текстов, аккордов, табулатур и нот


Alice Cooper - Sideshow - текст песни, таба, видео

Регистрация Запомнить меня
Войти через:  Facebook Google Twitter Vk Yandex Mail.ru

Alice Cooper - Sideshow - текст песни, таба, видео

Печатать
Просмотров: 162
Авторы: Bud Saylor, Jon Norwood, Brian Smith, Michael Brooks, Dan Wexler, Alice Cooper

-----------------------------------------------------------------
Sideshow - Alice Cooper
-----------------------------------------------------------------
Tabbed by: Darren Reeder
Email: darrenreeder@live.com

Tuning: Standard Tuning ( E a d g b e )

This is the first time I learnt a song by ear. I have tabbed it the way I
play it. I think that Stef Burns *Might* plays power chords with the root note on the
5th string but I left this out of the tab. Simply because I prefer it without the root.

-Enjoy! and feel free to MSN me!


PLEASE NOTE: The lyrics are not in sync with the tabs.. please listen to the actual
song to get timing correct
_______________________________________________________________________________________

Intro - Acoustic guitar
---
For this, I just have a clean electric guitar.


e|---------------------------------------------------------------|
B|-------/11-11-11--9---/11-9-9-11--11/9-------------------------|
G|-------/11-11-11--9---/11-9-9-11--11/9-------------------------|
D|-------/11-11-11--9---/11-9-9-11--11/9-------------------------|  REPEAT x4
A|---------------------------------------------------------------|
E|-0-(Let it ring)-----------------------------------------------|


On this part, ill let you work out strumming by listening to the track!

e|---5---7---2------------------------------------------------------|
B|---7---8---4------------------------------------------------------|
G|---7---8---4------------------------------------------------------|
D|---7---8---4------------------------------------------------------|
A|---5---7---2------------------------------------------------------|
E|------------------------------------------------------------------|


TURN THE DISTORTION ON NOW!!


e|---------------------------------------------------------------|
B|---------------------------------------------------------------|
G|--9-9-8-8-6-6-4-(let ring)----/7-7-6-6-2-2/4--4/---------------|
D|--9-9-9-9-7-7-4-(let ring)----/7-7-7-7-2-2/4--4/---------------| REEPEAT x2
A|---------------------------------------------------------------|
E|---------------------------------------------------------------|

e|---------------------------------------------------------------|
B|---------------------------------------------------------------|
G|--11-11-11-9---9-11-9-9-11-11/13-------------------------------|
D|--11-11-11-9---9-11-9-9-11-11/13-------------------------------| REPEAT x2
A|---------------------------------------------------------------|
E|---------------------------------------------------------------|


VERSE
--------

e|------------------------------------------------------------------|
B|------------------------------------------------------------------|
G|--------------------------------------9------9--------9---9--9/10-|
D|--2-----------------------------------9------9--------9---9--9/10-|
A|--2-----------------------------------7------7--------7---7--7/9--|
E|--0-----------------0-2p0-4p0-2p0---0----0-0----0-0-0---0---------|
                                           x x    x x x   x
I aint got no fun today                Its just like yesterday Oh yeah

e|--------------------------------------------------------------------|
B|--------------------------------------------------------------------|
G|---12-12-12-11----12-12-12-11--------11-11-11-9---11 9 11 11/13-13--|
D|---12-12-12-12----12-12-12-12--------11-11-11-9---11-9-11-11/13-13--|
A|--------------------------------------------------------------------|
E|---------------------------------0-(let ring)-----------------------|

        Only different shades of grey


**Then repeat the verse but WITHOUt the "0 2p0 4p0 2p0" part**


Work out strumming for power chords:
e|----------------------------------------------------------------------|
B|----------------------------------------------------------------------|
G|-2-----------7-----------------9--------------------11----------------|
D|-2-----------7-----------------9--------------------11----------------|
A|-0-----------5-----------------7--------------------9-----------------|
E|----------------------------------------------------------------------|

        MY TV screen, spins around and around and around and around!!!!!

e|---------------------------------------------------------------|
B|---------------------------------------------------------------|
G|--9-9-8-8-6-6-4-(let ring)----/7-7-6-6-2-2/4--4/---------------|
D|--9-9-9-9-7-7-4-(let ring)----/7-7-7-7-2-2/4--4/---------------| REEPEAT x2
A|---------------------------------------------------------------|
E|---------------------------------------------------------------|

 IM A SIDESHOW....


| /  slide up
| \  slide down
| h  hammer-on
| p  pull-off
| ~  vibrato
| +  harmonic
| x  Mute note
Добавлено: 03.07.2012
Другие материалы по этой песне:
  • Аккорды и текст

Страница создана 22.05.2012
http://primanota.ru/alice-cooper/sideshow-chords.htm
Привет, Гость.
Предлагаем пройти революционный курс по гитаре.
Подарок от PrimaNota.Ru, забирай!