PrimaNota.ru - самый крупный в мире бесплатный архив песенных текстов, аккордов, табулатур и нот


Alice Cooper - Sick Things - текст песни, таба, видео

Регистрация Запомнить меня
Войти через:  Facebook Google Twitter Vk Yandex Mail.ru

Alice Cooper - Sick Things - текст песни, таба, видео

Печатать
Просмотров: 211
Уроки эстрадного вокала в Санкт-Петербурге
Авторы: Michael Bruce, Bob Ezrin, Alice Cooper

-------------------------------------------------------------------------------
                             Sick Things - Alice Cooper
-------------------------------------------------------------------------------

Tabbed By : Just_Chaz
e-mail: murdermug@hotmail.com


Verse:
G|--------|--------|--------|--------|
D|--------|--------|--------|--------|
A|--------|--1--3--|--------|--1--3--|
E|--1--3--|--------|--1--3--|--------|

Verse final time before Chorus:
G|--------|----------------------|
D|--------|----------------------|
A|--------|--1--3-5-3-5-3-1---1--|
E|--1--3--|-----------------3----|

F    Gm      Bb C    F  Gm         Bb  C
Sick things in cars rotate round my stars
F    Gm      Bb C       F  Gm    Bb C
Sick things, my things, my pets, my things

Chorus:
G|---------------------|-----------------------|
D|---------------------|-----------------------|
A|---------------------|-----------------------|
E|--1-1-1-1-1-1-1-1-1--|--3-3-3-3-3-3-3-3-3-3--|

Chorus final time:
G|---------------------|-----------------------|
D|---------------------|-----------------------|
A|---------------------|-----------------------|
E|--1-1-1-1-1-1-1-1-1--|--5-5-5-5-5-5-5-5-5-5--|

           F                        Gm
I love you things, I see as much as you love me
               F
You things are heavenly
                 Gm
When you come to worship me
               F
You things are chilled with fright
         Gm
For I am out tonight
            F
You tell me where to bite
           Am
You wet my appetite

I eat my things, what love it brings
Come here my things
Don't fear my little things

I love you things, I see as much as you love me
You things are heavenly
When you come to worship me
You things are chilled with fright
For I am out tonight
You tell me where to bite
You wet my appetite

Sick things in cartridge tapes my stars
Sick things, play things
Pretty things, my things

I love you things, I see as much as you love me
You things are heavenly
When you come to worship me
You things are chilled with fright
For I am out tonight
You tell me where to bite
You wet my appetite


Outro Bassline:
G|-----------------------|
D|-----------------------|
A|--3-5-3-5-3-1----------|
E|--------------3-1--3~--|

Guitar Solo:
e|----------------------------------------------------------------13--|
B|--13b15-13p11----------6---------------------------------13b15~-----|
G|--------------12~--5h7---7p5\3-5b7r5~--------10-10----10------------|
D|---------------------------------------10h12-------12---------------|
A|--------------------------------------------------------------------|
E|--------------------------------------------------------------------|

e|------------------------------------------10----13----13b15-13-10-13b15~--|
B|--13b15r13p11-13b15-13b15r13~-11p10----10----11----11---------------------|
G|------------------------------------12------------------------------------|
D|--------------------------------------------------------------------------|
A|--------------------------------------------------------------------------|
E|--------------------------------------------------------------------------|

e|--15b17-15b17-------17---------------------------------------------------|
B|--------------15b17----13b15r13p11h13p11----------------13b15-11b13r11~--|
G|-----------------------------------------14r12-------12------------------|
D|-----------------------------------------------12h15---------------------|
A|-------------------------------------------------------------------------|
E|-------------------------------------------------------------------------|

                          Outro solo:
e|-----------------------|-----------------------8h10r8p6h8p6---6----------|
B|--8h11p8~------8p6h8~--|------------------------------------8---8-6h8p6--|
G|----------7h10---------|--/7-5-3---------3-------------------------------|
D|-----------------------|---------5-3-----3-5~----------------------------|
A|-----------------------|-------------5-3---------------------------------|
E|-----------------------|-------------------------------------------------|

e|------------------------------------------------------------|
B|--3h6p3-----------------------------------------------------|
G|--------5b7r5---3h5p3---3-5-5b7-7r5-3-5-5b7r5p3---3---------|
D|--------------5-------5-------------------------5---5---3~--|
A|------------------------------------------------------5-----|
E|------------------------------------------------------------|

| /  slide up
| \  slide down
| h  hammer-on
| p  pull-off
| ~  vibrato
| +  harmonic
| x  Mute note
| TP Trem pick
| b  Bend note
| r  Release note
| Wh Whammy bar

Thanks for reading, please email me with any corrections. - Just_Chaz
===============================================================================

Добавлено: 10.07.2012
Другие материалы по этой песне:
  • Аккорды и текст

Страница создана 13.04.2012
http://primanota.ru/alice-cooper/sick-things-chords.htm
Привет, Гость.
Предлагаем пройти революционный курс по гитаре.
Подарок от PrimaNota.Ru, забирай!