PrimaNota.ru - самый крупный в мире бесплатный архив песенных текстов, аккордов, табулатур и нот


Alice Cooper - Raped And Freezin Live - таба, видео

Регистрация Запомнить меня
Войти через:  Facebook Google Twitter Vk Yandex Mail.ru

Alice Cooper - Raped And Freezin Live - таба, видео

Печатать
Просмотров: 185
Band: Alice Cooper
Song: Raped and Freezin' (Live)
Album: Billion Dollar Babies
Year: 1973
Tabbed by DoteStudios
Note: This is the intro only but soon I will tab the whole song

Keys
b = bend
fb = full bend
x = muted note
/ = slide down the neck

E---------------------------------------------------------------------|
B---------------------------------------------------------------------|
G-7----------7----------7----------7----------------------------------|
D-5--3-5--7--5--3-5--7--7--3-5--7--7--3-5--8--------------------------|
A-5--3-5--7--5--3-5--7--5--3-5--7--5--3-5--8--------------------------|
E----1-3--5-----1-3--5-----1-3--5-----1-3--6--------------------------|

(live version second guitar intro below)
E-b12-b12-12-10----10-------------------------------------------------|
B---------------12----------------------------------------------------|
G---------------------------------------------------------------------|
D---------------------------------------------------------------------|
A---------------------------------------------------------------------|
E---------------------------------------------------------------------|

E---------------------------------------------------------------------|
B-----------------------------------------8---------------------------|
G-7-5-----------------7-5-----------7h8h9---9-8-7---------------------|
D-----7-5-7-7--fb9--------7-5-7-7----^------------7-10-7--------------|
A------------------------------------|--------------------------------|
E------------------------------------|--------------------------------|
				     (play the above part very fast)
				  
E-----------------------------2---------------------------------------|
B---------------------------3-----------------------------------------|
G-7-5--------------------/4-------------------------------------------|
D-----7-5-7-7--------5------------------------------------------------|
A--------------5-6-7--------------------------------------------------|
E---------------------------------------------------------------------|

  D D  D D		  D D  D D 		  D D  D D
E-2-2--2-2---------------2-2--2-2---------------2-2--2-2--------------|
B-3-3--3-3---------------3-3--3-3---------------3-3--3-3--------------|
G-2-2--2-2-2--7-7--------2-2--2-2-2--7-7--------2-2--2-2-2--7-7-------|
D-0-0--0-0-2--7-7--5-7---0-0--0-0-2--7-7--5-7---0-0--0-0-2--7-7--5-7--|
A-------------5-5--5-7---------------5-5--5-7---------------5-5--5-7--|
E------------------3-5--------------------3-5--------------------3-5--|
 (play the D chords as down, down, down, up)
 



D D  D D
E-2-2--2-2------------------------------------------------------------|
B-3-3--3-3------------------------------------------------------------|
G-2-2--2-2-2--7-7-----------------------------------------------------|
D-0-0--0-0-2--7-7--5-7------------------------------------------------|
A-------------5-5--5-7------------------------------------------------|
E------------------3-5------------------------------------------------|

E---------------------------------------------------------------------|
B---------------------------------------------------------------------|
G-7-7-7------------7-7-7------------7-7-7------------7-7-7------------|
D-5-5-5--3-5--5-7--7-7-7--3-5--5-7--7-7-7--3-5—-5-7--7-7-7--3-5--5-7--|
A-5-5-5--3-5--5-7--5-5-5--3-5--5-7--5-5-5--3-5--5-7--5-5-5--3-5--5-7--|
E--------1-3--3-5---------1-3--3-5---------1-3--3-5---------1-3--3-5--|

E---------------------------------------------------------------------|
B---------------------------------------------------------------------|
G-7-7-7------------7-7-7----------------------------------------------|
D-5-5-5--3-5--5-7--7-7-7--3-5--8--------------------------------------|
A-5-5-5--3-5--5-7--5-5-5--3-5--8--------------------------------------|
E--------1-3--3-5---------1-3--6--------------------------------------|

E---------------------------------------------------------------------|
B---------------------------------------------------------------------|
G-7-5------------------7-5------------------7-5-----------------------|
D-----7-5-7-7-------5------7-5-7-7-------5------7-5-7-7-------5-------|
A-------------5-6-7----------------5-6-7----------------5-6-7---------|
E---------------------------------------------------------------------|

		    D D  D D		    D D  D D
E------2-----------2-2--2-2---------------2-2--2-2--------------------|
B----3-------------3-3--3-3---------------3-3--3-3--------------------|
G-/4---------------2-2--2-2-2--7-7--------2-2--2-2-2--7-7-------------|
D------------------0-0--0-0-2--7-7--5-7---0-0--0-0-2--7-7--5-7--------|
A------------------------------5-5--5-7---------------5-5--5-7--------|
E-----------------------------------3-5--------------------3-5--------|
		   (play the D chords as down, down, down, up)

  D D  D D		  D D  D D
E-2-2--2-2---------------2-2--2-2-------------------------------------|
B-3-3--3-3---------------3-3--3-3-------------------------------------|
G-2-2--2-2-2--7-7--------2-2--2-2-2--7-7------------------------------|
D-0-0--0-0-2--7-7--5-7---0-0--0-0-2--7-7--5-7-------------------------|
A-------------5-5--5-7---------------5-5--5-7-------------------------|
E------------------3-5--------------------3-5-------------------------|

Добавлено: 13.06.2012
Другие материалы по этой песне:
  • Аккорды и текст

Страница создана 30.05.2012
http://primanota.ru/alice-cooper/raped-and-freezin-live-chords.htm
Привет, Гость.
Предлагаем пройти революционный курс по гитаре.
Подарок от PrimaNota.Ru, забирай!