PrimaNota.ru - самый крупный в мире бесплатный архив песенных текстов, аккордов, табулатур и нот


Alice Cooper - Prologue I Know Where You Live - текст песни, таба, видео

Регистрация Запомнить меня
Войти через:  Facebook Google Twitter Vk Yandex Mail.ru

Alice Cooper - Prologue I Know Where You Live - текст песни, таба, видео

Печатать
Просмотров: 144
Band: Alice Cooper
Song: I Know Where You Live
Album: Along Came A Spider
Year: 2008
Tabbed by DoteStudios
Email is manbearpigisreal@gmail.com

Prologue:
“We found his diary today. He wrote in great detail, how cleverly he planned
all of the killings. How precisely he executed his insane fantasies. It was
all so perfect except for one thing…
(one thing, one thing, one thing, one thing)”

E------------------------------------------------------------------|
B------------------------------------------------------------------|
G-------------------------------5-6-7--7-7-x-x-x-------------------|
D-7--7-7-x-x-x-7-6-5--5-5-x-x-x-5-6-7--7-7-x-x-x-5-4-3--3-3-x-x-x--|
A-7--7-7-x-x-x-7-6-5--5-5-x-x-x-3-4-5--5-5-x-x-x-5-4-3--3-3-x-x-x--|
E-5--5-5-x-x-x-5-4-3--3-3-x-x-x------------------3-2-1--1-1-x-x-x--|

E------------------------------------------------------------------|
B------------------------------------------------------------------|
G------------------3-4-5--5-5-x-x-x-5-6-7--7-7-x-x-x---------------|
D-5-6-7--7-7-x-x-x-3-4-5--5-5-x-x-x-5-6-7--7-7-x-x-x-5-4-3--3-4-5--|
A-5-6-7--7-7-x-x-x-1-2-3--3-3-x-x-x-3-4-5--5-5-x-x-x-5-4-3--3-4-5--|
E-3-4-5--5-5-x-x-x-----------------------------------3-2-1--1-2-3--|

E--------|
B--------|
G--------|
D-5-6-7/-|
A-5-6-7/-|
E-3-4-5/-|

“I like to watch from my car
I like to make sure you don't go far”

“I know the hours you sleep”
E------------------|
B------------------|
G------------------|
D------------------|
A------------------|
E-5-6-5-3--5-3--0--|

“Don't approve of the company that you keep”

“While you're in work I'm alone”
E------------------|
B------------------|
G------------------|
D------------------|
A------------------|
E-5-6-5-3--5-3--0--|

“In your room, on your bed and you'll never know”

“I like to go through your things”
E--------------------|
B--------------------|
G--------------------|
D--------------------|
A--------------------|
E-5-6-5-3--5-3--3/12-|

“The touch, the smell, the joy it brings”
E------------------------|
B------------------------|
G------------------------|
D---5-4-3--3-4-5--5-6-7--|
A---5-4-3--3-4-5--5-6-7--|
E---3-2-1--1-2-3--3-4-5--|

“I know where you live
I know where you hide
I know what keeps you alive
I know where you go
I know who you know
I know where your spending your nights”
E---------------------------------------------------------------------|
B---------------------------------------------------------------------|
G--------5-6-7----------------3-4-5--5-6-7----------------------------|
D-7-6-5--5-6-7--5-4-3--5-6-7--3-4-5--5-6-7--5-4-3--3-4-5--5-6-7--7-7-x|
A-7-6-5--3-4-5--5-4-3--5-6-7--1-2-3--3-4-5--5-4-3--3-4-5--5-6-7--7-7-x|
E-5-4-3---------3-2-1--3-4-5----------------3-2-1--1-2-3--3-4-5--5-5-x|

E--------------------------------------------------|
B--------------------------------------------------|
G-----------------5-6-7-x-x-x----------------------|
D-x-x-7-6-5-x-x-x-5-6-7-x-x-x-5-4-3--3-4-5--5-6-7--|
A-x-x-7-6-5-x-x-x-3-4-5-x-x-x-5-4-3--3-4-5--5-6-7--|
E-x-x-5-4-3-x-x-x-------------3-2-1--1-2-3--3-4-5--|

“I don't like the guy in the suit”
E------------------|
B------------------|
G------------------|
D------------------|
A------------------|
E-5-6-5-3--5-3--0--|

“Or that street punk in the combat boots”

“You may not see them again”
E------------------|
B------------------|
G------------------|
D------------------|
A------------------|
E-5-6-5-3--5-3--0--|

“I showed them a quick but painful end”
E-------------------|
B-------------------|
G-9-7----7-5--------|
D------7------5-7\--|
A-------------------|
E-------------------|

“I know where you live
I know where you hide
I know what keeps you alive
I know where you go
I know who you know
I know where your spending your nights”
E---------------------------------------------------------------------|
B---------------------------------------------------------------------|
G--------5-6-7----------------3-4-5--5-6-7----------------------------|
D-7-6-5--5-6-7--5-4-3--5-6-7--3-4-5--5-6-7--5-4-3--3-4-5--5-6-7--5-5-x|
A-7-6-5--3-4-5--5-4-3--5-6-7--1-2-3--3-4-5--5-4-3--3-4-5--5-6-7--5-5-x|
E-5-4-3---------3-2-1--3-4-5----------------3-2-1--1-2-3--3-4-5--7-7-x|

E--------------------------------------------------|
B--------------------------------------------------|
G-----------------5-6-7-x-x-x----------------------|
D-x-x-7-6-5-x-x-x-5-6-7-x-x-x-5-4-3--3-4-5--5-6-7--|
A-x-x-7-6-5-x-x-x-3-4-5-x-x-x-5-4-3--3-4-5--5-6-7--|
E-x-x-5-4-3-x-x-x-------------3-2-1--1-2-3--3-4-5--|

E-------------|
B-------------|
G-7b8r7~~p5---| 6x
D-----------7-|
A-------------|
E-------------|

“I see, I feel, I watch over you”

“I see, I feel, I watch over you
I see, I feel, I watch over you”
E-------------|
B-------------|
G-7b8r7~~p5---| 6x
D-----------7-|
A-------------|
E-------------|

“I want to know what you say
I need to hear the prayers you pray
I like to play with your hair
When you sleep and you dream and there's no one there”

E-----------------------|
B-----------------------|
G-----------------------|
D-----------------------|
A-----------------------|
E-3-2-1--1-2-3--3-4-5\--|
“I know where you live
I know where you hide
I know what keeps you alive”

”I know where you go
I know who you know
I know where your spending your nights”
E-------------------------------------------|
B-------------------------------------------|
G--------3-4-5--5-6-7-----------------------|
D-5-6-7--3-4-5--5-6-7--5-4-3--3-4-5--5-6-7--|
A-5-6-7--1-2-3--3-4-5--5-4-3--3-4-5--5-6-7--|
E-3-4-5----------------3-2-1--1-2-3--3-4-5--|

During solo...
Rhythm Guitar
E----------------------------------------------------------------|
B----------------------------------------------------------------|
G--------5-6-7----------------3-4-5--5-6-7-----------------------|
D-7-6-5--5-6-7--5-4-3--5-6-7--3-4-5--5-6-7--5-4-3--3-4-5--5-6-7--|
A-7-6-5--3-4-5--5-4-3--5-6-7--1-2-3--3-4-5--5-4-3--3-4-5--5-6-7--|
E-5-4-3---------3-2-1--3-4-5----------------3-2-1--1-2-3--3-4-5--|

“I see, I feel, I watch over you
I see, I feel, I watch over you
I see, I feel, I watch over you
I see, I feel, I watch over you
I see, I feel, I watch over you
I see, I feel, I watch over you
I see, I feel, I watch over you
I see, I feel, I watch over you
I see, I feel, I watch over you
I see, I feel, I watch over you”
E-------------|
B-------------|
G-7b8r7~~p5---| Repeat many times
D-----------7-|
A-------------|
E-------------|
Добавлено: 07.07.2012
Другие материалы по этой песне:
  • Аккорды и текст

Страница создана 07.07.2012
http://primanota.ru/alice-cooper/prologue-i-know-where-you-live-chords.htm
Привет, Гость.
Предлагаем пройти революционный курс по гитаре.
Подарок от PrimaNota.Ru, забирай!