PrimaNota.ru - самый крупный в мире бесплатный архив песенных текстов, аккордов, табулатур и нот


Alice Cooper - My God - текст песни, таба, видео

Регистрация Запомнить меня
Войти через:  Facebook Google Twitter Vk Yandex Mail.ru

Alice Cooper - My God - текст песни, таба, видео

Печатать
Просмотров: 137


Song Title: My God
Album: Lace And Whiskey
Artist: Alice Cooper
Words and Music by Alice Cooper, Dick Wagner, And Bob Ezrin
Tabbed by: Rory MacKenzie

Intro:
                       1.____________________________   2._____________________
||:-------------------|------------------------------:||-----------------------|
||:6------5----6-5----|4-----3-----1-----3-----3--5--:||4-----3----------------|
||:5------5--------5--|--3-----3-----3-----3---3--5--:||--3------3---3-2-3-2---|
||:7------5----------5|----3-----3-----------3-3--5--:||----3----------------3-|
||:-------------------|------------------------------:||-----------------------|
||:-------------------|------------------------------:||-----------------------|

Verse
||:1-------------3---------------|1---------------------------:||
||:1-------------5---------------|3---------------------------:||
||:2-------------5---------------|3-----------------3-2-3-2---:||
||:3-------------3---------------|3-------------------------3-:||
||:------------------------------|----------------------------:||
||:------------------------------|----------------------------:||
 1.If I    should find my self in black  est nights
   and fear is stabbin' me    all o ver
 2.When life  becomes more real than children's games
   or we've become too old  to    play them
 3.I was a boy when tempted      fell sometimes
   and fell so low no one could   see me

1-------------3---------------|1---------------------------
1-------------5---------------|3-------------------------1-
2-------------5---------------|3-------------------0-2-3---
3-------------3---------------|3-----------------3---------
------------------------------|----------------------------
------------------------------|----------------------------
  a ti  ny prayer cracks the   dark with light
  we'll grow old gracefully we'll hide our shame
  save for the eyes of him that sees my crime

1-------------3---------------|1-----------------------------
1-------------5---------------|3--------------------------1--
2-------------5---------------|3-------------------0---3-----
3-------------3---------------|3-----------------3-----------
------------------------------|------------------------------
------------------------------|------------------------------
 and I   hear sounds behind my wall
 But there's that voice behind the wall
 When sheep like me have drifted lost

1---------------0-----------------|1---------1---------------|
3---------------1-----------------|1---------3---------------|
2---------------0-----------------|2---------3---------------|
0---------------2-----------------|3---------3---------------|
----------------3-----------------|3---------1---------------|
----------------------------------|1-------------------------|
  inside   a still small voice it  calls and calls
  And like my conscience it is     still and small
  all frightened children who are  tempest tossed

--0----------0-------1---3--|1------0----1-----------------------------------|
--2----------2-------3---2--|3------1----3--------------------------------5--|
--2----------2-------2---2--|2------0----3--------------------------------5--|
--2----------2-------x---2--|0------2----3--------------------------------5--|
0--------------------2---4--|-------3----1-----------------------------------|
----------------------------|------------------------------------------------|
 then like a thunderbolt it  falls and falls    (hold)                    my
 each word is mer    cy  pro  tects us all                                my
 down flies His wrath like an al ba tross                                 my

-------------------|------------------------------|
6------5----6-5----|4-----3-----1-----3-----3--5--|
5------5--------5--|--3-----3-----3-----3---3--5--|
7------3----------5|----3-----3-----------3-3--5--|
-------------------|------------------------------|
-------------------|------------------------------|
   God
               to % 1._____________________   2.____________________________
-------------------|-----------------------:||------------------------------|
6------5----6-5----|4-----3----------------:||4-----3-----1----3-------1----|
5------5--------5--|--3------3---3-2-3-2---:||--3-----3-----3----3---3---0--|
7------3----------5|----3----------------3-:||----3-----3----------3--------|
-------------------|-----------------------:||------------------------------|
-------------------|-----------------------:||------------------------------|
                               (To Verse 2)
                                                               1.______________
||:----4--4--4----4--3-   ---4----3----   ----6--6--5----6--6-|--------------:||
||:----4--4--4----4--4-   ---6----4----   ----6--6--6----6--6-|--------------:||
||:----5--5--5----5--3- 3 ---5----3---- 4 ----7--7--5----7--7-|--------------:||
||:6------------------- / ------------- / 8-------------------|--------8--8--:||
||:-------------------- 4 ------------- 4 --------------------|--------------:||
||:--------------------   -------------   --------------------|--------------:||
       Et in lux  perpe      tu   a          Deux do     mi ne
       Et in pax  aeter      nam             Deux do     mi ne
2._____________________________________________________
----------------------|---------------|3--5--5--------|
----------------------|---------------|5--6--6--------|
-----------------3----|0--2--2--------|---------------|
-------------0-3------|2--3--3--------|---------------|
-----------1----------|---------------|---------------|
----------------------|---------------|---------------|

Piano Solo
||:-------------------------|--------------------------------|
||:6---8-6------5---6-5-----|4-----3-----1-----3-----1---1---|
||:5-------5----5-------5---|--3-----3-----3-----3-----3---3-|
||:7-7-------7--5-5-------5-|----3-----3-----3-----3---------|
||:-------------------------|--------------------------------|
||:-------------------------|--------------------------------|
                                 1.______________________________
--------------------------------|------------------------------:||
----6---8-6---------5---6-5-----|4-----3-----1-----3-----3--5--:||
--5---------5-----5---------5---|--3-----3-----3-----3---3--5--:||
7-----7-------7-5-----5-------5-|----3-----3-----3-----3-3--5--:||
--------------------------------|------------------------------:||
--------------------------------|------------------------------:||

2.______________________               %
------------------------|              ------------------------------|
4---3-------------------|              4-----3-----1--------------1--|
3---3----3----3-2-3-3---|              --3-----3-----3------0-2-3----|
3---3----3------------3-|              ----3-----3--------3----------|
---------1--------------|              ------------------------------|
------------------------|              ------------------------------|
              to verse 3

                       1.____________________________   2._____________________
||:-------------------|------------------------------:||---------1-------------:||
||:6------5----6-5----|4-----3-----1-----3-----3--5--:||4-----3--3-----------1-:||
||:5------5--------5--|--3-----3-----3-----3---3--5--:||--3------3-----0-2-3---:||
||:7------5----------5|----3-----3-----------3-3--5--:||----3----3---3---------:||
||:-------------------|------------------------------:||---------1-------------:||
||:-------------------|------------------------------:||-----------------------:||

--1-1--1--1--0-------|1-----------------|---1-1--1--0--1--3--0-|1--------1-------|
--3-------1----3--1--|3---------------1-|---3------------------|---1--1--3-------|
--2-------0----------|3--3------0--3----|---2-------0--2--3--0-|2--------3-------|
0---------2----------|3--3----3---------|0---------------------|---3--3--3-------|
----------3----------|1-----------------|----------------------|---------1-------|
---------------------|------------------|----------------------|-----------------|

--0----------0-------1---3--|1------0----1---------------|--------------------|
--2----------2-------3---2--|3------1----3-------------5-|6-------------------|
--2----------2-------2---2--|2------0----3-------------5-|5-------------------|
--2----------2-------x---2--|0------2----3-------------5-|7-------------------|
0--------------------2---4--|-------3----1---------------|--------------------|
----------------------------|----------------------------|--------------------|

Добавлено: 13.10.2013
Другие материалы по этой песне:
  • Аккорды и текст

Страница создана 16.05.2012
http://primanota.ru/alice-cooper/my-god-chords.htm
Привет, Гость.
Предлагаем пройти революционный курс по гитаре.
Подарок от PrimaNota.Ru, забирай!