PrimaNota.ru - самый крупный в мире бесплатный архив песенных текстов, аккордов, табулатур и нот


Alice Cooper - Lock Me Up - текст песни, таба, видео

Регистрация Запомнить меня
Войти через:  Facebook Google Twitter Vk Yandex Mail.ru

Alice Cooper - Lock Me Up - текст песни, таба, видео

Печатать
Просмотров: 198
Album: Raise Your Fist and Yell
Year: 1987
Band:Alice Cooper (solo)
Written by Kane Roberts

Keys
b = bend
r = release
\ = slide up neck 
/ = slide down neck
h = hammer-on
p = pull-off
~ = hold note
w = whammy bar
v = vibrato
< > = strike the notes in between the symbols while in the bend
D = strum down
U = strum up
. = palm muted note

Intro
E--------------------------------------------------------------------|
B--------------------------------------------------------------------|
G-9-9-x-x-x-9-9-x-x-x-9-9-x-x-x-7~~7~~-9-9-x-x-x-9-9-x-x-x-9-9-x-x-x-|
D-9-9-x-x-x-9-9-x-x-x-9-9-x-x-x-7~~7~~-9-9-x-x-x-9-9-x-x-x-9-9-x-x-x-|
A-7-7-x-x-x-7-7-x-x-x-7-7-x-x-x-5~~5~~-7-7-x-x-x-7-7-x-x-x-7-7-x-x-x-|
E--------------------------------------------------------------------|

E-----------------------------------------------------------------|
B-----------------------------------------------------------------|
G---------x-x-x-9-9-x-x-x-9-9-x-x-x-7~~7~~-9-9-x-x-x-9-9-x-x-x----|
D-7-5--2--x-x-x-9-9-x-x-x-9-9-x-x-x-7~~7~~-9-9-x-x-x-9-9-x-x-x-7~~|
A-7-5--2--x-x-x-7-7-x-x-x-7-7-x-x-x-5~~5~~-7-7-x-x-x-7-7-x-x-x-7~~|
E-5-3--0-------------------------------------------------------5~~|

“Alice Cooper
You have been accused of mass mental cruelty”
E--------------------------------|
B--------------------------------|
G--------------------------------|
D-2--2---2--2---2--2---7-5--2~~--|
A-2--2---2--2---2--2---7-5--2~~--|
E-0--0---0--0---0--0---5-3--0~~--|

“How do you plead?
Guilty!”
E--------------------------------------------|
B-5-----5~~--5--7-------5-----5~~------------|
G----7-------------7~~-----7-----------------|
D----------------------------------7-5--2~~--|
A----------------------------------7-5--2~~--|
E----------------------------------5-3--0~~--|
(the single notes above are pinch harmonics and a little whammy bar)

“Don't wanna be clean
Don't wanna be nice
The whip's gonna crack
My leather is black and so are my eyes
I'm gonna be rough
I'm gonna be mean
I'm here to the end, my sick little friend
I'm back in your dreams”
E------------------------------------------------|
B------------------------------------------------|
G------------------------------------------------| 2x
D--------------------------------------7-5--2~~--|
A-7--5--7~~----7--9--5~~----7--5--7~~--7-5--2~~--|
E--------------------------------------5-3--0~~--|

“You can take my head and cut it off
But you ain't gonna change my mind”
E--------------------------|
B--------------------------|
G-9~~~---------------------|
D-9~~~--------12~~~-11~~~--|
A-7~~~--------12~~~-11~~~--|
E-------7--9--10~~~--9~~~--|

“If you don't like it you can lock me up!”
E----------------------|
B----------------------|
G-11~~---x-x-x-9---11--|
D-11~~---x-x-x-9---11--|
A--9~~---x-x-x-7----9--|
E----------------------|

"Wooh woh oh oh ooh!”
E-----------------------|
B-----------------------|
G-9~~--7--x-x-x-7~~-9~~-|
D-9~~--7--x-x-x-7~~-9~~-|
A-7~~--5--x-x-x-5~~-7~~-|
E-----------------------|
Repeat the 2 riffs above 2x

E-----------------------|
B-----------------------|
G-12-11--12-11----------|
D-12-11--12-11--12-10~~-|
A-10--9--10--9--12-10~~-|
E---------------10--8~~-|

E-----------------------------------|
B-----------------------------------|
G-7-7-x-x-x-7-7-7-x-x-x-9-9-9-9~~\--|
D-7-7-x-x-x-7-7-7-x-x-x-9-9-9-9~~\--|
A-5-5-x-x-x-5-5-5-x-x-x-7-7-7-7~~\--|
E-----------------------------------|
Добавлено: 03.05.2012
Другие материалы по этой песне:
  • Аккорды и текст

Страница создана 11.03.2012
http://primanota.ru/alice-cooper/lock-me-up-chords.htm
Привет, Гость.
Предлагаем пройти революционный курс по гитаре.
Подарок от PrimaNota.Ru, забирай!