PrimaNota.ru - самый крупный в мире бесплатный архив песенных текстов, аккордов, табулатур и нот


Alice Cooper - Keeping Halloween Alive - таба, видео

Регистрация Запомнить меня
Войти через:  Facebook Google Twitter Vk Yandex Mail.ru

Alice Cooper - Keeping Halloween Alive - таба, видео

Печатать
Просмотров: 150
-------------------------------------------------------------------------------
                             KEEPING HALLOWEEN ALIVE - Alice Cooper
-------------------------------------------------------------------------------
Tabbed by: ironmanben
Email: bentrooper@gmail.com

Tuning: eb Bb Gb Db Ab Eb

Intro:
e|------------------------------------------------------|
B|------------------------------------------------------|
G|-3-3-4-5-5-5-5-3-5-5-8-5-3-3-5----------------------5-|
D|-3-3-4-5-5-5-5-3-5-5-8-5-3-3-5------5---4---3-------5-|
A|-1-1-2-3-3-3-3-1-3-3-6-3-1-1-3----6---3---3---3-6-6-3-|
E|------------------------------------------------------|
-|                                                      |
e|------------------------------------------------------|
B|------------------------------------------------------|
G|-3-3-4-5555555555555555---------101010-8--8-8-5-5-3-5-|
D|-3-3-4-5555555555555555---------101010-8--8-8-5-5-3-5-|
A|-1-1-2-3333333333333333----------8-8-8-6--6-6-3-3-1-3-|
E|------------------------------------------------------|

verse:
e|---------|----------|-------------------------|
B|---------|----------|-------------------------|
G|-3-3-4-5-|-(insert)-|---101010-8--8-8-5-5-3-5-|
D|-3-3-4-5-|--(fill)--|---101010-8--8-8-5-5-3-5-|
A|-1-1-2-3-|---(here)-|----8-8-8-6--6-6-3-3-1-3-|
E|---------|----------|-------------------------|
-|                                              |
e|----------------------------------------------|
B|----------------------------------------------|
G|-3-3-4-5555555555555555-101010-8--8-8-5-5-3-5-|
D|-3-3-4-5555555555555555-101010-8--8-8-5-5-3-5-|
A|-1-1-2-3333333333333333--8-8-8-6--6-6-3-3-1-3-|
E|----------------------------------------------|

-|fill 1|fill 2 |
e|------|-5-6-5-|
B|------|-------|
G|-5-3~-|-------|
D|---3--|-------|
A|------|-------|
E|------|-------|

chorus:
e|-----------------------------------------------------|
B|-----------6-4-----------6-4-------------------------|
G|-----------5-3-----------5-3-------------------------|
D|---------------------------------8-6--6-8--8-1010810-|
A|---------------------------------8-6--6-8--8-1010810-|
E|---------------------------------6-4--4-6--6-8-8-6-8-|
-|                                                     |
e|-----------------------------------------------------|
B|-----------------------------------------------------|
G|-8-8-3-5-5-----8-8-3-5-5-----8-8---------------------|
D|-8-8-3-5-5-----8-8-3-5-5-----8-8-8-6--6-8--8-1010810-|
A|-6-6-1-3-3-----6-6-1-3-3-----6-6-8-6--6-8--8-1010810-|
E|---------------------------------6-4--4-6--6-8-8-6-8-|


bridge 1:
e|---------------------------------------------------------12--------16--15-|
B|-------13--11^(13)11^(13)--11^(13)11^(13)--11^(13)11^(13)--13~---13--13---|
G|---------12--------------12--------------12-------------------------------|
D|--------------------------------------------------------------------------|
A|--------------------------------------------------------------------------|
E|--------------------------------------------------------------------------|

-|
e|---------------------------------------------------------------------------|
B|---------------------------------------------------------------------------|
G|-3-3-4-5~------------------------------------------------------------------|
D|-3-3-4-5~------------------------------------------------------------------|
A|-1-1-2-3~------------------------------------------------------------------|
E|---------------------------------------------------------------------------|

e|---14----------------------------------------------------------------------|
B|-13---13-16-16-13--11-13-13~-13-----13------16-16-------16-16---10^-8------|
G|-----------------12----------15^(17)15^(17)-17-17-17-15-17-17---10^-8------|
D|----------------------------------------------------------------10^-8-10-8-|
A|----------------------------------------------------------------------10-8-|
E|---------------------------------------------------------------------------|

-|
e|---------------------------------------------------------------------------|
B|---------------------------------------------------------------------------|
G|-----------------------------5555555555555555-------------------101010-8---|
D|-----------------------------5555555555555555-------------------101010-8---|
A|-10-10-10-9-9-8-8-3-66-3-----3333333333333333--------------------8-8-8-6---|
E|---------------------------------------------------------------------------|

e|-----------------|
B|-----------------|
G|-10^(12)p8-------|
D|-----------10-10-|
A|-----------------|
E|-----------------|
-|                 |
e|-----------------|
B|-----------------|
G|-----------------|
D|-8-8-5-5-3-5-----|
A|-6-6-3-3-1-3-----|
E|-----------------|

bridge 2:
e|---------------------------------------------------------------|
B|-99999999----------1111111111111111----------99999999----------|
G|-88888888-88888888-1010101010101010-55555533-88888888-88888888-|
D|-66666666-88888888-8-8-8-8-8-8-8-8--55555533-66666666-88888888-|
A|----------66666666------------------33333311----------66666666-|
E|---------------------------------------------------------------|
-|                                                               |
e|---------------------------------------------------------------|
B|---------------------------------------------------------------|
G|----------88888888------------------55555555----------88888888-|
D--66666666-88888888----88888888------55555555-66666666-88888888-|
A|-66666666-66666666----88888888------33333333-66666666-66666666-|
E|-44444444-------------66666666---------------44444444----------|

bridge 3:
e|-------------------------------------------------------------------------|
B|-11-----11------13-----13-----15-----15-----16-----16-----18-----16------|
G|-13^(15)13^(15)-15^(17)15^(17)17^(19)17^(19)18^(20)18^(20)20^(22)18^(20)-|
D|-------------------------------------------------------------------------|
A|-------------------------------------------------------------------------|
E|-------------------------------------------------------------------------|
-|
e|--------------------------|---|
B|--------------------------|---|
G|--------------------------|-5-|
D|-8-8--8-8--8-8--8-8--8--8-|-5-|
A|-8-8--8-8--8-8--8-8--8--8-|-3-|
E|-6-6--6-6--6-6--6-6--6--6-|---|
                              ^Second time only
bridge 4:
e|--------------------------------------------------------------------------|
B|---------------------------------------10^(12)-8-10-8---------------------|
G|-10^(12)-10^10^10^10^-10h12p10p--------10^(12)-8-10-8----10-8-------------|
D|-------------------------------13p10------------------10------10p8h10-----|
A|--------------------------------------------------------------------------|
E|--------------------------------------------------------------------------|
-|
e|--------------------------------------------------------------------------|
B|--------------------------------------------------------------------------|
G|----------------------------------------1010108--8-8-5-5-3-5--------------|
D|----------------------------------------1010108--8-8-5-5-3-5--------------|
A|----------------------------------------8-8-8-6--6-6-3-3-1-3--------------|
E|--------------------------------------------------------------------------|

e|--------------------------------------------------------------------------|
B|-11^(13)11^(13)11^(13)11^(13)11^(13)11^(13)11^(13)11^(13)11^(13)-11^(13)--|
G|--------------------------------------------------------------------------|
D|--------------------------------------------------------------------------|
A|--------------------------------------------------------------------------|
E|--------------------------------------------------------------------------|
-|
e|--------------------------------------------------------------------------|
B|--------------------------------------------------------------------------|
G|-3-3-4-5------------------------------------------------------------------|
D|-3-3-4-5------------------------------------------------------------------|
A|-1-1-2-3------------------------------------------------------------------|
E|--------------------------------------------------------------------------|

e|------------16--15---14-------------|
B|-14^(16)--13--13---13---13-16-16-13-|
G|------------------------------------|
D|------------------------------------|
A|------------------------------------|
E|------------------------------------|
-|                                    |
e|------------------------------------|
B|------------------------------------|
G|-1010108--8-8-5---------------------|
D|-1010108--8-8-5---------------------|
A|-8-8-8-6--6-6-3---------------------|
E|------------------------------------|

Order:
Main Riff x2
Verse x2
Chorus x2
Bridge 1 x1
Verse x2
Chorus x2
Bridge 2
Bridge 3 x2
Bridge 4
Chorus x4(with soloing over it(I don't know the soloing over it))
Добавлено: 04.05.2012
Другие материалы по этой песне:
  • Аккорды и текст

Страница создана 04.05.2012
http://primanota.ru/alice-cooper/keeping-halloween-alive-chords.htm
Привет, Гость.
Предлагаем пройти революционный курс по гитаре.
Подарок от PrimaNota.Ru, забирай!