PrimaNota.ru - самый крупный в мире бесплатный архив песенных текстов, аккордов, табулатур и нот


Alice Cooper - Grande Finale - таба, видео

Регистрация Запомнить меня
Войти через:  Facebook Google Twitter Vk Yandex Mail.ru

Alice Cooper - Grande Finale - таба, видео

Печатать
Просмотров: 185
Авторы музыки: Dennis Dunaway, Neal Smith, Michael Bruce, Glen Buxton, Mack David, Bob Ezrin, Alice Cooper, Leonard Bernstein

Band: Alice Cooper
Song: Grande Finale
Album: School's Out
Year: 1972
Tabbed by DoteStudios
Email is manbearpigisreal@gmail.com

 This is everything the keyboard and horns are playing, the guitars are just playing Gm 
C,Bb - Gm - C,Bb.

Keys
b = bend
r = release
\ = slide up neck
/ = slide down neck
h = hammer-on
p = pull-off
~ = hold note

0:38
E--------------------|
B-----5--------------|
G-7~~------------5~~-|
D--------5--8--5-----|
A--------------------|
E--------------------|

0:46
E--------------------|
B-----8-6------------|
G-7~~------7-----5~~-|
D------------5-8-----|
A--------------------|
E--------------------|

0:56
E------------------------------|
B-----------6------------------|
G-7--7--5-7---7----------------|
D---------------5-8--5-8-8-5~~-|
A------------------------------|
E------------------------------|

1:04
E--------------------------|
B---6-8~~------------------|
G-7-------7----------5-----|
D------------5--8--5---5~~-|
A--------------------------|
E--------------------------|

1:14
E--------------------------------|
B---6-8~~-8-6--------------------|
G-7-----------7-----5--5--5--5~~-|
D---------------5-8--------------|
A--------------------------------|
E--------------------------------|
1:24
E-----------------------------|
B-----------6-----------------|
G-7--7--5-7---7---------------|
D---------------5-8--5-8--5~~-|
A-----------------------------|
E-----------------------------|

1:34
Guitar
E------------------------------------|
B------------------------------------|
G-5-3---3----------12-10----10--12\--|
D-----5----5\------------12----------|
A------------------------------------|
E------------------------------------|

E----------------------------------10~~-|
B---------------------------------------|
G-5-3---3----------12-10----10--12------|
D-----5----5\------------12-------------|
A---------------------------------------|
E---------------------------------------|

E---------------------------------------|
B---------------------------------------|
G-5-3---3----------12-10----10/12-10\5--|
D-----5----5\------------12-------------|
A---------------------------------------|
E---------------------------------------|

2:00
Back to horns…
E-----------------------------|
B-----------6-----------------|
G-7--7--5-7---7---------------| 2x
D---------------5-8--5-8--5~~-|
A-----------------------------|
E-----------------------------|

2:20
E-------------------------|
B--------6--5------6-8~~--|
G-7-7-7-------7-5---------| 2x
D-------------------------|
A-------------------------|
E-------------------------|

2:38
E--------------------------------|
B--------6--5---------8-8-8--6~~-|
G-7-7-7--------7-7-7-------------| 2x
D--------------------------------|
A--------------------------------|
E--------------------------------|
        
2:58
E--------------------------------|
B--------6--5-------------8-8-8--|
G-7-7-7-------7-5--7-7-7---------| 3x
D--------------------------------|
A--------------------------------|
E--------------------------------|

3:26
E--------------------------|
B--------6--5--------8--6--|
G-7-7-7--------7-7-7-------|
D--------------------------|
A--------------------------|
E--------------------------|

3:34
E-----------------------------|
B-----------6-----------------|
G-7--7--5-7---7---------------|
D---------------5-8--5-8--5~~-|
A-----------------------------|
E-----------------------------|

3:44
E-----------------------------|
B-----------6-----------------|
G-7--7--5-7---7-----------8~~-|
D---------------5-8--5-8------|
A-----------------------------|
E-----------------------------|

4:13
E----------------------------------------|
B-2-3----------2-3------------3-----3----|
G-----4------------4-------3-----5-------|
D-------5-3~~--------5-3-5---------------|
A-------------------------------------5--|
E----------------------------------------|

“POW!”
Добавлено: 05.06.2012
Другие материалы по этой песне:
  • Аккорды и текст

Страница создана 05.06.2012
http://primanota.ru/alice-cooper/grande-finale-chords.htm
Привет, Гость.
Предлагаем пройти революционный курс по гитаре.
Подарок от PrimaNota.Ru, забирай!