PrimaNota.ru - самый крупный в мире бесплатный архив песенных текстов, аккордов, табулатур и нот


Alice Cooper - Go To Hell - текст песни, таба, видео

Регистрация Запомнить меня
Войти через:  Facebook Google Twitter Vk Yandex Mail.ru

Alice Cooper - Go To Hell - текст песни, таба, видео

Печатать
Просмотров: 276
Авторы: Bob Ezrin, Alice Cooper, Dick Wagner

Band: Alice Cooper
Song: Go To Hell
Album: Alice Cooper Goes To Hell
Year: 1976
Tabbed by DoteStudios
Email is undermywheels71@gmail.com

Keys
b = bend
r = release
\ = slide up neck 
/ = slide down neck
h = hammer-on
p = pull-off
~ = hold note
w = whammy bar
v = vibrato

Guitar 1
E----------------------------------------------------------------------|
B----------------------------------------------------------------------|
G----------------------------------------------------------------------|
D---4-4-------4-4-------4-4-----------4-4-----------4-4----------4-4---|
A-----------------------------2h4-----------2h4-----------2--4---------|
E-2-------0-2-------0h2-----------0h2-----------0h2------------0h2-----|

Guitar 1
E---------------------------------------------------------------------|
B---------------------------------------------------------------------|
G---------------------------------------------------------------------|
D-----4-4--------------4-4-----------4-4-------4-4--------------4-4---|
A------------0-2h4-----------2h4-----------------------2--4-----------|
E-0h2--------------0h2-----------0h2-------0h2--------------0h2-------|

Guitar 2
E---------------------------------------------------------------------|
B-14~~---------13~~----------12~~----------11~~--------14~~-----------|
G-14~~---------13~~----------12~~----------11~~--------14~~-----------|
D-14~~---------13~~----------12~~----------11~~--------14~~-----------|
A-12~~---------11~~----------10~~-----------9~~--------12~~-----------|
E---------------------------------------------------------------------|

Guitar 3
E-17-----------16------------15------------14----------17-------------|
B-20b22~~------19b21~~-------18b20~~-------17b19~~-----20b22~~--------|
G---------------------------------------------------------------------|
D---------------------------------------------------------------------|
A---------------------------------------------------------------------|
E---------------------------------------------------------------------|

Guitar 1
E-----------------------------|
B-----------------------------|
G-----------------------------|
D-----4-4--------------4-4----|
A-------------2--4------------|
E-0h2--------------0h2--------|

Guitar 2
E-----------------------------|
B-13~~--------12~~------------|
G-13~~--------12~~------------|
D-13~~--------12~~------------|
A-11~~--------10~~------------|
E-----------------------------|

Guitar 3
E-16----------15--------------|
B-19b21~~-----18b20~~---------|
G-----------------------------|
D-----------------------------|
A-----------------------------|
E-----------------------------|

Guitar 1
E----------------|
B----------------|
G----------------|
D----------------|
A----------------|
E-2--2-0-5-2--2--|

 “For criminal acts and violence on the stage”
Guitar 1
E-------------------------------------|
B-------------------------------------|
G-------------------------------------|
D-4--4p2---2--4-----------------2--4--|
A--------4-------4p2-0-2--4-----2--4--|
E---------------------------2---0--2--|

Guitar 2
E--------------------------------------|
B--------------------------------------|
G--------------------------------------|
D--------------------------------2--4--|
A--------------------------------2--4--|
E--------------------------------0--2--|

“For being a brat refusing to act your age”
Guitar 1
E----------------------------------------|
B----------------------------------------|
G----------------------------------------|
D-4--4p2---2--4--------------------------|
A--------4-------4p2-0-2--4--------------|
E---------------------------2---0-2-5-2--|

Guitar 2
E----------------------------------------|
B----------------------------------------|
G----------------------------------------|
D----------------------------------------|
A----------------------------------------|
E-------------------------------0-2-5-2--|

“For all the decent citizens you've enraged
You can go to Hell”
Guitar 1
E-----------------------------------------------------------|
B-----------------------------------------------------------|
G-----------------------------------------------------------|
D-4--4p2---2--4----------------6-7--7-6--5--4---------------|
A--------4-------4p2-0-2--4----6-7--7-6--5--4---------------|
E---------------------------2--4-5--5-4--3--2---0-2-5-2--2--|

Guitar 2
E-----------------------------------------------------------|
B-----------------------------------------------------------|
G-----------------------------------------------------------|
D------------------------------6-7--7-6--5--4---------------|
A------------------------------6-7--7-6--5--4---------------|
E------------------------------4-5--5-4--3--2---0-2-5-2--2--|

“For gambling and drinking alcohol constantly”
Guitar 1
E-------------------------------------|
B-------------------------------------|
G-------------------------------------|
D-4--4p2---2--4-----------------2--4--|
A--------4-------4p2-0-2--4-----2--4--|
E---------------------------2---0--2--|

Guitar 2
E--------------------------------------|
B--------------------------------------|
G--------------------------------------|
D--------------------------------2--4--|
A--------------------------------2--4--|
E--------------------------------0--2--|

“For making us doubt our parents authority”
Guitar 1
E----------------------------------------|
B----------------------------------------|
G----------------------------------------|
D-4--4p2---2--4--------------------------|
A--------4-------4p2-0-2--4--------------|
E---------------------------2---0-2-5-2--|

Guitar 2
E----------------------------------------|
B----------------------------------------|
G----------------------------------------|
D----------------------------------------|
A----------------------------------------|
E-------------------------------0-2-5-2--|

“For choosing to be a living obscenity
You can go to Hell”
Guitar 1
E-----------------------------------------------------------|
B-----------------------------------------------------------|
G-----------------------------------------------------------|
D-4--4p2---2--4----------------6-7--7-6--5--4---------------|
A--------4-------4p2-0-2--4----6-7--7-6--5--4---------------|
E---------------------------2--4-5--5-4--3--2---0-2-5-2--2--|

Guitar 2
E-----------------------------------------------------------|
B-----------------------------------------------------------|
G-----------------------------------------------------------|
D------------------------------6-7--7-6--5--4---------------|
A------------------------------6-7--7-6--5--4---------------|
E------------------------------4-5--5-4--3--2---0-2-5-2--2--|

“You're something that never should have happened
You even make your Grandma sick”
Guitars 1 and 2
E-------------------------------------------|
B-------------------------------------------|
G-4~~----7~~----6--6--6--------------2------|
D-4~~----7~~----6--6--6------2h4-2-4--------|
A-2~~----5~~----4--4--4----4----------------|
E----------------------------------------2--|

“You'd poison a blind man's dog and steal his cane”
Guitar 1
E-------------------------------------|
B-------------------------------------|
G-------------------------------------|
D-4--4p2---2--4-----------------2--4--|
A--------4-------4p2-0-2--4-----2--4--|
E---------------------------2---0--2--|

Guitar 2
E--------------------------------------|
B--------------------------------------|
G--------------------------------------|
D--------------------------------2--4--|
A--------------------------------2--4--|
E--------------------------------0--2--|

“You'd gift-wrap a leper and mail him to your Aunt Jane”
Guitar 1
E----------------------------------------|
B----------------------------------------|
G----------------------------------------|
D-4--4p2---2--4--------------------------|
A--------4-------4p2-0-2--4--------------|
E---------------------------2---0-2-5-2--|

Guitar 2
E----------------------------------------|
B----------------------------------------|
G----------------------------------------|
D----------------------------------------|
A----------------------------------------|
E-------------------------------0-2-5-2--|

“You'd even force-feed a diabetic a candy cane
You can go to Hell”
Guitar 1
E-----------------------------------------------------------|
B-----------------------------------------------------------|
G-----------------------------------------------------------|
D-4--4p2---2--4----------------6-7--7-6--5--4---------------|
A--------4-------4p2-0-2--4----6-7--7-6--5--4---------------|
E---------------------------2--4-5--5-4--3--2---0-2-5-2--2--|

Guitar 2
E-----------------------------------------------------------|
B-----------------------------------------------------------|
G-----------------------------------------------------------|
D------------------------------6-7--7-6--5--4---------------|
A------------------------------6-7--7-6--5--4---------------|
E------------------------------4-5--5-4--3--2---0-2-5-2--2--|

Solo
Guitars 1 and 2
E-----------------------------------------------------------------------|
B-----------------------------------------------------------------------|
G------2----------------------------------------------------------------| 
D------2----------2--4--2----------------4--4--4----------4--4--4-------|
A-12/--0--0--2/4--------2----------2--4--4--4--4----------4--4--4-------|
E-----------------------0--0--2/4--------2--2--2-0-2-5-2--2--2--2--2-4--|

E------------------------------------------------------------------|
B------------------------------------------------------------------|
G-2----------------------------------------------------------------|
D-2----------2--4--2----------------4--4--4----------4--4--4-------|
A-0--0--2/4--------2----------2--4--4--4--4----------4--4--4-------|
E------------------0--0--2/4--------2--2--2-0-2-5-2--2--2--2--2-4--|

Guitar 1
E-------------------------------------------------14----------14------|
B-------------------------------12-14----------------14----------14---|
G------------9--11----9--11/13--------11----16b18-------16b18-------…-|
D---7--9/11--------9--------------------------------------------------|
A---------------------------------------------------------------------|
E---------------------------------------------------------------------|

Guitar 2
E---------------------------------------------------------------------|
B---------------------------------------------------------------------|
G-2-------------------------------------------------------------------|
D-2----------2--4--2----------------4--4--4----------4--4--4----------|
A-0--0--2/4--------2----------2--4--4--4--4----------4--4--4----------|
E------------------0--0--2/4--------2--2--2-0-2-5-2--2--2--2--2-4-----|

“You're something that never should have happened
Guitars 1 and 2
E-------------------------------------------|
B-------------------------------------------|
G-4~~----7~~----6--6--6--------------2------|
D-4~~----7~~----6--6--6------2h4-2-4--------|
A-2~~----5~~----4--4--4----4----------------|
E----------------------------------------2--|

“For criminal acts and violence on the stage”
Guitar 1
E-------------------------------------|
B-------------------------------------|
G-------------------------------------|
D-4--4p2---2--4-----------------2--4--|
A--------4-------4p2-0-2--4-----2--4--|
E---------------------------2---0--2--|

Guitar 2
E--------------------------------------|
B--------------------------------------|
G--------------------------------------|
D--------------------------------2--4--|
A--------------------------------2--4--|
E--------------------------------0--2--|

“For being a brat refusing to act your age”
Guitar 1
E----------------------------------------|
B----------------------------------------|
G----------------------------------------|
D-4--4p2---2--4--------------------------|
A--------4-------4p2-0-2--4--------------|
E---------------------------2---0-2-5-2--|

Guitar 2
E----------------------------------------|
B----------------------------------------|
G----------------------------------------|
D----------------------------------------|
A----------------------------------------|
E-------------------------------0-2-5-2--|

“For all the decent citizens you've enraged
You can go to Hell”
Guitar 1
E-----------------------------------------------------------|
B-----------------------------------------------------------|
G-----------------------------------------------------------|
D-4--4p2---2--4----------------6-7--7-6--5--4---------------|
A--------4-------4p2-0-2--4----6-7--7-6--5--4---------------|
E---------------------------2--4-5--5-4--3--2---0-2-5-2--2--|

Guitar 2
E-----------------------------------------------------------|
B-----------------------------------------------------------|
G-----------------------------------------------------------|
D------------------------------6-7--7-6--5--4---------------|
A------------------------------6-7--7-6--5--4---------------|
E------------------------------4-5--5-4--3--2---0-2-5-2--2--|

Solo 2
Guitar 1
E----------------------------------------------------------|
B----------------------------------------------------------|
G----------------------------------------------------------|
D---4-4--------------4-4------------4-4v--------------4-4--|
A----------0h2h4------------2-4-------------0-2h4----------|
E-2--------------0h2------------0h2---------------0h2------|

Guitar 1
E-----------------------------------------------------------|
B-----------------------------------------------------------|
G-----------------------------------------------------------|
D---------4-4-----------4-4-------------4-4------------4-4--|
A-2-4-----------2h4-----------0-2h4-----------2--4----------|
E-----0h2-----------0h2-------------0h2------------0h2------|

Guitar 2
E-----------------------------------------------------------|
B-14~~---------13~~----------12~~----------11~~-------------|
G-14~~---------13~~----------12~~----------11~~-------------|
D-14~~---------13~~----------12~~----------11~~-------------|
A-12~~---------11~~----------10~~-----------9~~-------------|
E-----------------------------------------------------------|

Guitar 3
E-17-----------16------------15------------14---------------|
B-20b22~~------19b21~~-------18b20~~-------17b19~~----------|
G-----------------------------------------------------------|
D-----------------------------------------------------------|
A-----------------------------------------------------------|
E-----------------------------------------------------------|

Guitar 1
E-------------------------------------------|
B-------------------------------------------|
G-------------------------------------------|
D---------4-4----------4-4-----------4-4----|
A-2h4----------2h4----------2--4------------|
E-----0h2----------0h2-----------0h2--------|

Guitar 2
E-------------------------------------------|
B-14~~--------13~~----------12~~------------|
G-14~~--------13~~----------12~~------------|
D-14~~--------13~~----------12~~------------|
A-12~~--------11~~----------10~~------------|
E-------------------------------------------|

Guitar 3
E-17----------16------------15--------------|
B-20b22~~-----19b21~~-------18b20~~---------|
G-------------------------------------------|
D-------------------------------------------|
A-------------------------------------------|
E-------------------------------------------|

Guitar 1
E----------------|
B----------------|
G----------------|
D----------------|
A----------------|
E-2--2-0-5-2--2--|

Guitars 1 and 2 (alternate during solo)
E-----------------------------------------------------------------------|
B-----------------------------------------------------------------------|
G------2----------------------------------------------------------------| 
D------2----------2--4--2----------------4--4--4----------4--4--4-------|
A-12/--0--0--2/4--------2----------2--4--4--4--4----------4--4--4-------|
E-----------------------0--0--2/4--------2--2--2-0-2-5-2--2--2--2--2-4--|

E------------------------------------------------------------------|
B------------------------------------------------------------------|
G-2----------------------------------------------------------------| 2x
D-2----------2--4--2----------------4--4--4----------4--4--4-------|
A-0--0--2/4--------2----------2--4--4--4--4----------4--4--4-------|
E------------------0--0--2/4--------2--2--2-0-2-5-2--2--2--2--2-4--|
Добавлено: 25.03.2012
Другие материалы по этой песне:

Страница создана 25.03.2012
http://primanota.ru/alice-cooper/go-to-hell-chords.htm
Привет, Гость.
Предлагаем пройти революционный курс по гитаре.
Подарок от PrimaNota.Ru, забирай!