PrimaNota.ru - самый крупный в мире бесплатный архив песенных текстов, аккордов, табулатур и нот


Alghazanth - With A Thorn In Our Hearts - текст песни, таба, видео

Регистрация Запомнить меня
Войти через:  Facebook Google Twitter Vk Yandex Mail.ru

Alghazanth - With A Thorn In Our Hearts - текст песни, таба, видео

Печатать
Просмотров: 102
Band: Alghazanth
Song: With a thorn in our hearts
Album: Vinum Intus
Tab by: Someone(fimbulwinter@abv.bg)

Tuning: D (1 whole step down)

Listen to the song for timing.


tremolo picking  x4
e||---------------------------------------------------------------------------------|
B||---------------------------------------------------------------------------------|
G||----11--9-------------11-9----11-12-12-11-9-11-----------------------------------|
D||----------12-11-12-9-------12----------------------------------------------------|
A||---------------------------------------------------------------------------------|
E||---------------------------------------------------------------------------------|

tremolo picking  x2
e||---------------------------------------------------------------------------------|
B||---------------------------------------------------------------------------------|
G||---11---------------------11-----------9-----------------------------------------|
D||-------11----9--12--11--------11---12--------------------------------------------|
A||---------------------------------------------------------------------------------|
E||---------------------------------------------------------------------------------|

tremolo picking  x2
e||---------------------------------------------------------------------------------|
B||---------------------------------------------------------------------------------|
G||----11--9-------------11-9----11-12-12-11-9-11-----------------------------------|
D||----------12-11-12-9-------12----------------------------------------------------|
A||---------------------------------------------------------------------------------|
E||---------------------------------------------------------------------------------|

tremolo picking  x2
e||---------------------------------------------------------------------------------|
B||---------------------------------------------------------------------------------|
G||----11-9-12---------11-9-12--11-12-12-11-9-11------------------------------------|
D||------------11-12-9--------------------------------------------------------------|
A||---------------------------------------------------------------------------------|
E||---------------------------------------------------------------------------------|

tremolo picking  x1
e||---------------------------------------------------------------------------------|
B||---------------------------------------------------------------------------------|
G||---11---------------------11--------------9--------------------------------------|
D||-------11-11---9--12--11--------11-11--12----------------------------------------|
A||---------------------------------------------------------------------------------|
E||---------------------------------------------------------------------------------|

tremolo picking x2
e||-------14-----------------12---------------14---------------15-14-17-15-14-15----|
B||----12----15-14--12-14-15----15-14-15---12-----15-14--12-14----------------------|
G||---------------------------------------------------------------------------------|
D||---------------------------------------------------------------------------------|
A||---------------------------------------------------------------------------------|
E||---------------------------------------------------------------------------------|

tremolo picking x1
e||---------------------------------------------------------------------------------|
B||---------------------10-12-10----------------------------------------------------|
G||----11----12-11-9-9------------11-12--11-----------------------------------------|
D||---------------------------------------------------------------------------------|
A||---------------------------------------------------------------------------------|
E||---------------------------------------------------------------------------------|

tremolo picking x1
e||---------------------------------------------------------------------------------|
B||---------------------------------------------------------------------------------|
G||----11-11---12-11----------------------------------------------------------------|
D||------------------11---12-14--11-8-----------------------------------------------|
A||---------------------------------------------------------------------------------|
E||---------------------------------------------------------------------------------|

tremolo picking x1
e||---------------------------------------------------------------------------------|
B||---------------------10-12-10----------------------------------------------------|
G||----11----12-11-9-9------------11-12--11-----------------------------------------|
D||---------------------------------------------------------------------------------|
A||---------------------------------------------------------------------------------|
E||---------------------------------------------------------------------------------|

tremolo picking x1
e||---------------------------------------------------------------------------------|
B||---------------------------------------------------------------------------------|
G||----11-11---12-11----------------------------------------------------------------|
D||------------------11---12-14--11-8--9~-------------------------------------------|
A||---------------------------------------------------------------------------------|
E||---------------------------------------------------------------------------------|

tremolo picking x6
e||---------------------------------------------------------------------------------|
B||---------------------------------------------------------------------------------|
G||-----------------------9----------11---------------------------------------------|
D||---12-11-9-11-12----11---12-11-12-----11-----------------------------------------|
A||---------------------------------------------------------------------------------|
E||---------------------------------------------------------------------------------|

tremolo picking x2
e||---------------------------------------------------------------------------------|
B||----------------------10---------12----------------------------------------------|
G||--12--11-9-11-12----11--12-11-12-----11------------------------------------------|
D||---------------------------------------------------------------------------------|
A||---------------------------------------------------------------------------------|
E||---------------------------------------------------------------------------------|

tremolo picking x4
e||---------------------------------------------------------------------------------|
B||---------------------------------------------------------------------------------|
G||-----------------------9----------11---------------------------------------------|
D||---12-11-9-11-12----11---12-11-12-----11-----------------------------------------|
A||---------------------------------------------------------------------------------|
E||---------------------------------------------------------------------------------|

(that sounds like violin, but i transcribed it.) x1
e||---------------------------------------------------------------------------------|
B||---------------------------------------------------------------------------------|
G||---11-9--------------11-9---------------11-12-11-9-11--11-12-11-9-11-9-----------|
D||--------12-11-12-11-------12-11-12-11--------------------------------------------|
A||---------------------------------------------------------------------------------|
E||---------------------------------------------------------------------------------|

x1
e||---------------------------------------------------------------------------------|
B||---------------------------------------------------------------------------------|
G||---11-9--------------11-9--------------------------------------------------------|
D||--------12-11-12-11-------12-11-12-11--------------------------------------------|
A||---------------------------------------------------------------------------------|
E||---------------------------------------------------------------------------------|

x1
e||---------------------------------------------------------------------------------|
B||------------------10-12-14--15-14-12-14-10-12-7---14-12-14-17-19-14--17-19-14-15-|
G||----11-12-11-9-11----------------------------------------------------------------|
D||---------------------------------------------------------------------------------|
A||---------------------------------------------------------------------------------|
E||---------------------------------------------------------------------------------|

x1
e||-------------------------------------------------------------------17-19~--------|
B||----15-14-12-14-10--12-7------------14-15-17-19-14--17-19-20-19-20---------------|
G||------------------------------14-16----------------------------------------------|
D||---------------------------17----------------------------------------------------|
A||---------------------------------------------------------------------------------|
E||---------------------------------------------------------------------------------|

listen to the song for this one (Couldn't hear the lead here, if you can please let me know.)
e||---------------------------------------------------------------------------------|
B||---------------------------------------------------------------------------------|
G||---------------------------------------------------------------------------------|
D||---4-4-4-4-4-4-4-2-2-2-2-2-2-2-2-4-4-4-4-4-4-4-2-2-2-2-2-2-2---------------------|
A||---2-2-2-2-2-2-2-0-0-0-0-0-0-0-2-2-2-2-2-2-2-2-0-0-0-0-0-0-0---------------------|
E||---------------------------------------------------------------------------------|

tremolo picking x2
e||---------------------------------------------------------------------------------|
B||---------------------------------------------------------------------------------|
G||----11--9-------------11-9----11-12-12-11-9-11-----------------------------------|
D||----------12-11-12-9-------12----------------------------------------------------|
A||---------------------------------------------------------------------------------|
E||---------------------------------------------------------------------------------|

tremolo picking x2
e||---------------------------------------------------------------------------------|
B||---------------------------------------------------------------------------------|
G||----11-9-12---------11-9-12--11-12-12-11-9-11------------------------------------|
D||------------11-12-9--------------------------------------------------------------|
A||---------------------------------------------------------------------------------|
E||---------------------------------------------------------------------------------|

tremolo picking x1
e||---------------------------------------------------------------------------------|
B||---------------------------------------------------------------------------------|
G||---11---------------------11-----------9-----------------------------------------|
D||-------11----9--12--11--------11---12--------------------------------------------|
A||---------------------------------------------------------------------------------|
E||---------------------------------------------------------------------------------|

tremolo picking x2
e||-------14-----------------12---------------14---------------15-14-17-15-14-15----|
B||----12----15-14--12-14-15----15-14-15---12-----15-14--12-14----------------------|
G||---------------------------------------------------------------------------------|
D||---------------------------------------------------------------------------------|
A||---------------------------------------------------------------------------------|
E||---------------------------------------------------------------------------------|

tremolo picking x1
e||---------------------------------------------------------------------------------|
B||---------------------10-12-10----------------------------------------------------|
G||----11----12-11-9-9------------11-12--11-----------------------------------------|
D||---------------------------------------------------------------------------------|
A||---------------------------------------------------------------------------------|
E||---------------------------------------------------------------------------------|

tremolo picking x1
e||---------------------------------------------------------------------------------|
B||---------------------------------------------------------------------------------|
G||----11-11---12-11----------------------------------------------------------------|
D||------------------11---12-14--11-8-----------------------------------------------|
A||---------------------------------------------------------------------------------|
E||---------------------------------------------------------------------------------|

tremolo picking x1
e||---------------------------------------------------------------------------------|
B||---------------------10-12-10----------------------------------------------------|
G||----11----12-11-9-9------------11-12--11-----------------------------------------|
D||---------------------------------------------------------------------------------|
A||---------------------------------------------------------------------------------|
E||---------------------------------------------------------------------------------|

tremolo picking x1
e||---------------------------------------------------------------------------------|
B||---------------------------------------------------------------------------------|
G||----11-11---12-11----------------------------------------------------------------|
D||------------------11---12-14--11-8-----------------------------------------------|
A||---------------------------------------------------------------------------------|
E||---------------------------------------------------------------------------------|

tremolo picking x4
e||---------------------------------------------------------------------------------|
B||---------------------------------------------------------------------------------|
G||-----------------------9----------11---------------------------------------------|
D||---12-11-9-11-12----11---12-11-12-----11-----------------------------------------|
A||---------------------------------------------------------------------------------|
E||---------------------------------------------------------------------------------|

tremolo picking x4
e||----------------------------------------------------------------------------------|
B||----------------------10---------12-----------------------------------------------|
G||--12--11-9-11-12----11--12-11-12-----11-------------------------------------------|
D||----------------------------------------------------------------------------------|
A||----------------------------------------------------------------------------------|
E||----------------------------------------------------------------------------------|

tremolo picking x4                            the last time
e||----------------------------------------------------------------------------------|
B||----------------------------------------------------------------------------------|
G||-----------------------9----------11----------------------------------------------|
D||---12-11-9-11-12----11---12-11-12-----11---/-7~-----------------------------------|
A||----------------------------------------------------------------------------------|
E||----------------------------------------------------------------------------------|
Добавлено: 19.06.2013
Вам также может быть интересно:
Другие материалы по этой песне:
  • Аккорды и текст

Страница создана 19.06.2013
http://primanota.ru/alghazanth/with-a-thorn-in-our-hearts-chords.htm
Привет, Гость.
Предлагаем пройти революционный курс по гитаре.
Подарок от PrimaNota.Ru, забирай!