PrimaNota.ru - самый крупный в мире бесплатный архив песенных текстов, аккордов, табулатур и нот


Algernon Cadwallader - I Wanna Go To The Beach - бас-таба, видео

Регистрация Запомнить меня
Войти через:  Facebook Google Twitter Vk Yandex Mail.ru

Algernon Cadwallader - I Wanna Go To The Beach - бас-таба, видео

Печатать
Просмотров: 222
Уроки эстрадного вокала в Санкт-Петербурге
Algernon Cadwallader - I Wanna Go To The Beach
Tabbed by Jonathan Minto.

Key:
/ - slide

I'm not sure if this is how Pete plays it...but it works! Please don't rely on this tab 
for the correct amount of notes.

Intro

G---------------------------------------------------------------------|
D---------------------------------------------------------------------|
A----17-16-14h16p14-7/9/7---------------------------------------------|
E---------------------------------------------------------------------|

Verse

G---------------------------------------------------------------------|
D---------------------------------------------------------------------|
A--12-12-12-7-9/------------------------------------------12----------|
E----------------5-5-5-5-5-5-5-5-10-10-10-10-10-10-10/12--------------|

G----------------------------------------------------------------------|
D----------------------------------------------------------------------|
A--12-12-11-11-9-9-7-7-9-17-16-14-7/12-----------------7-7-7-7-7-7-7-7-|
E--------------------------------------5-5-5-5-5-5-5-5/----------------|

Chorus

G---------------------------------------------------------------------|
D---------------------------------------------------------------------|
A----------------------------------4-4-4-4-4-4-4-4-5-5-5-5-5-5-5-5----|
E--5-5-5-5-5-5-5-5-2-2-2-2-2-2-2-2------------------------------------|

End Chorus To Verse

G---------------------------------------------------------------------|
D---------------------------------------------------------------------|
A-------4-5-5-5-4------4-5-5-5-4--12-12-12-11-11-9-9-7-7-9-17-16-14-7-|
E--5--5-----------5--5------------------------------------------------|

G---------------------------------------------------------------------|
D---------------------------------------------------------------------|
A--12--12-12-7-9/7-5-5-5-5-5-5-5-5-5-5-5-5-5-5-5-5--------------------|
E---------------------------------------------------------------------|

Guitar Fill

Bridge

G--------------------------------------------------------------------|
D--------------------------------------------------------------------|
A--------------------------------------------------------------------|
E--5-5-5-5-5-5-5-5-5-5-5-5-5-5-5-5-5-5-5-5-5-5-5-5-5-5-5-5-5-5-5-5---|

Chorus

G---------------------------------------------------------------------|
D---------------------------------------------------------------------|
A----------------------------------4-4-4-4-4-4-4-4-5-5-5-5-5-5-5-5----|
E--5-5-5-5-5-5-5-5-2-2-2-2-2-2-2-2------------------------------------|

Outro
G---------------------------------------------------------------------|
D---------------------------------------------------------------------|
A-------4-5-5-5-4------4-5-5-5-4------4-5-5-5-4-----------------------|
E--5-5------------5-5------------5-5-------------5--------------------|
Добавлено: 12.05.2012
Другие материалы по этой песне:
  • Аккорды и текст

Страница создана 12.05.2012
http://primanota.ru/algernon-cadwallader/i-wanna-go-to-the-beach-chords.htm
Привет, Гость.
Предлагаем пройти революционный курс по гитаре.
Подарок от PrimaNota.Ru, забирай!