PrimaNota.ru - самый крупный в мире бесплатный архив песенных текстов, аккордов, табулатур и нот


Algernon Cadwallader - Horror - бас-таба, видео

Регистрация Запомнить меня
Войти через:  Facebook Google Twitter Vk Yandex Mail.ru

Algernon Cadwallader - Horror - бас-таба, видео

Печатать
Просмотров: 120
Tabbed by: Guilherme Freitas 
e-mail: guilhermethf@hotmail.com

Intro
G|--------------------------------------------------------------------------|
D|--------------------------------------------------------------------------|
A|------------------5-------5-----------------------------------------------|
E|--5-------5---------------------------------------------------------------|


Verse: Porcelain, seat reading... 
G|------------------|-------------------------------------------------------|
D|----------7-------|---------4---------------------------------------------|
A|------7-------7---|-----5-------2-----------------------------------------|
E|--5---------------|--3----------------------------------------------------|

 
followed frankenstein...

 
G|------------------|
D|----------4-------|
A|------5-----------|
E|--3---------------|


Chorus: And the walkind dead... 
G|--------------------------------------------------------------------------|
D|----------------5------5--------------------------------------------------|
A|---------5----------------------------------------------------------------|
E|--2-----------------------------------------------------------------------|


Outro: (Ooooooh, oooooh we ooooh...)
G|--------------------------------------------------------------------------|
D|----------------5------5--------------------------------------------------|
A|---------5----------------------------------------------------------------|
E|--2-----------------------------------------------------------------------|
Добавлено: 19.11.2013
Вам также может быть интересно:
Другие материалы по этой песне:

Страница создана 19.11.2013
http://primanota.ru/algernon-cadwallader/horror-chords.htm
Привет, Гость.
Предлагаем пройти революционный курс по гитаре.
Подарок от PrimaNota.Ru, забирай!