PrimaNota.ru - самый крупный в мире бесплатный архив песенных текстов, аккордов, табулатур и нот


Alfredo Casero - Shimauta - текст песни, таба, видео

Регистрация Запомнить меня
Войти через:  Facebook Google Twitter Vk Yandex Mail.ru

Alfredo Casero - Shimauta - текст песни, таба, видео

Печатать
Просмотров: 128
Уроки эстрадного вокала в Санкт-Петербурге
Proud of you Japan (:


Intro:

     E                           A             B           E

e|--------------------11-12-----11-12-------------------------------------|
B|----------9--10--12-------12--------10---9-10-7-------------------------|
G|-----8-9------------------------------------------9-8--11--9------------|
D|--9---------------------------------------------------------------------|
A|------------------------------------------------------------------------|
E|------------------------------------------------------------------------|

or..

        E                         A       B        E
e|----------4-5-7--11-12-----11-12-----------------------------------------|
B|--0-4-5-5---------------12--------10--9-10--7-5-4-7--5-------------------|
G|-------------------------------------------------------------------------|
D|-------------------------------------------------------------------------|
A|-------------------------------------------------------------------------|
E|-------------------------------------------------------------------------|


Verse 1:


      E                 A            B       E
   Deigo ga sakimidare kaze wo yobi arashi ga kita

e|---------4-5-7--11-12-----11-12------------------------------------------|
B|--0-4-5----------------12--------10-10--9-10--7-5-4-7--5-----------------|
G|-------------------------------------------------------------------------|
D|-------------------------------------------------------------------------|
A|-------------------------------------------------------------------------|
E|-------------------------------------------------------------------------|

        E                   A     B           E
   Kurikaesu kanashimi wa shima wataru nami no yo-u

e|---------4-5-7--11-12-----11-12------------------------------------------|
B|--0-4-5----------------12--------10-10--9-10--7-5-4-7--5-----------------|
G|-------------------------------------------------------------------------|
D|-------------------------------------------------------------------------|
A|-------------------------------------------------------------------------|
E|-------------------------------------------------------------------------|


      C#m       G#m  A       C#m
   Uuji no mori de anata to deai

e|---------0-4-------------------------------------------------------------|
B|--5-4-2-------12---------------------------------------------------------|
G|-----------------13--13-11-9-9-------------------------------------------|
D|--------------------------------11-9-11----------------------------------|
A|-------------------------------------------------------------------------|
E|-------------------------------------------------------------------------|

       C#m      G#m     A          B
   Uuji no shita de chiyo ni sayonara

e|-----------7-9-----------------------------------------------------------|
B|-----7-9-9-----7--9-7-----7-9-7------------------------------------------|
G|--9-------------------9-9------------------------------------------------|
D|-------------------------------------------------------------------------|
A|-------------------------------------------------------------------------|
E|-------------------------------------------------------------------------|


Chorus:

      E        B      C#m     G#m          A    B      E
Shima uta yo kaze ni norí  tori to tomo ni umi wo watare

e|-------------------------------------------------------------------------|
B|-------------------------------------------------------------------------|
G|----8-9--9--11--9-8----8-9--11--9--8-------------------------------------|
D|--9------------------9----------------9-9--7---7-------------------------|
A|--------------------------------------------------9-7-6-9--7-------------|
E|-------------------------------------------------------------------------|

      E        B      C#m     G#m          A    B      E
Shima uta yo kaze ni norí todokete okure watashi no namida

e|-------------------------------------------------------------------------|
B|-------------------------------------------------------------------------|
G|----8-9--9--11--9-8----8-9--9--11--9--8----------------------------------|
D|--9------------------9-------------------9-9--7---7----------------------|
A|-----------------------------------------------------9-7-6-6-9--7--------|
E|-------------------------------------------------------------------------|

Verse 2:


      E                 A            B       E
   De-i-go no hana mo chiri saza nami ga yureru dake

e|---------4-5-7--11-12-----11-12------------------------------------------|
B|--0-4-5----------------12--------10-10--9-10--7-5-4-7--5-----------------|
G|-------------------------------------------------------------------------|
D|-------------------------------------------------------------------------|
A|-------------------------------------------------------------------------|
E|-------------------------------------------------------------------------|

      E                 A            B       E
   Sasayakana shiawase wa utakata no nami no hana

e|---------4-5-7--11-12-----11-12------------------------------------------|
B|--0-4-5----------------12--------10-10--9-10--7-5-4-7--5-----------------|
G|-------------------------------------------------------------------------|
D|-------------------------------------------------------------------------|
A|-------------------------------------------------------------------------|
E|-------------------------------------------------------------------------|


        C#m      G#m     A          B
   Uuji no mori de utatta tomo yo

e|---------0-4-------------------------------------------------------------|
B|--5-4-2-------12---------------------------------------------------------|
G|-----------------13--13-11-9-9-------------------------------------------|
D|--------------------------------11-9-11----------------------------------|
A|-------------------------------------------------------------------------|
E|-------------------------------------------------------------------------|


        C#m      G#m     A          B
   Uuji no shita de yachiyo no wakare

e|-----------7-9-----------------------------------------------------------|
B|-----7-9-9-----7--9-7-----7-9-7------------------------------------------|
G|--9-------------------9-9------------------------------------------------|
D|-------------------------------------------------------------------------|
A|-------------------------------------------------------------------------|
E|-------------------------------------------------------------------------|


Final Chorus:

      E        B      C#m     G#m          A    B      E
Shima uta yo kaze ni norí  tori to tomo ni umi wo watare

e|-------------------------------------------------------------------------|
B|-------------------------------------------------------------------------|
G|----8-9--9--11--9-8----8-9--11--9--8-------------------------------------|
D|--9------------------9----------------9-9--7---7-------------------------|
A|--------------------------------------------------9-7-6-9--7-------------|
E|-------------------------------------------------------------------------|

      E        B      C#m     G#m          A    B      E
Shima uta yo kaze ni norí todokete okure watashi no namida

e|-------------------------------------------------------------------------|
B|-------------------------------------------------------------------------|
G|----8-9--9--11--9-8----8-9--9--11--9--8----------------------------------|
D|--9------------------9-------------------9-9--7---7----------------------|
A|-----------------------------------------------------9-7-6-6-9--7--------|
E|-------------------------------------------------------------------------|

Questions? Send comments then (: love ya!

www.alfredocasero.com.ar/
Добавлено: 22.06.2012
Другие материалы по этой песне:
  • Аккорды и текст

Страница создана 26.02.2012
http://primanota.ru/alfredo-casero/shimauta-chords.htm
Привет, Гость.
Предлагаем пройти революционный курс по гитаре.
Подарок от PrimaNota.Ru, забирай!