PrimaNota.ru - самый крупный в мире бесплатный архив песенных текстов, аккордов, табулатур и нот


Alfred Hall - Someplace Beautiful - таба, видео

Регистрация Запомнить меня
Войти через:  Facebook Google Twitter Vk Yandex Mail.ru

Alfred Hall - Someplace Beautiful - таба, видео

Печатать
Просмотров: 194
-------------------------------------------------------------------------------
                             SOMEPLACE BEAUTIFUL - Alfred Hall
-------------------------------------------------------------------------------
Tabbed by:  Samuel Rede
Tuning:     Standard (CAPO 5)

e|-----------------------------------2---2---2---2---2---2---2---2-------|
B|---0---0---0---0---0---0---0---0---------------------------------------|
G|-----------------------------------------------------------------------|
D|-----------------------------------------------------------------------|
A|---------------------------------5---5---5---5---5---5---5---5---------|
E|-3---3---3---3---3---3---3---3-----------------------------------------|



e|-----------------------------------2---2---2---2---2---2---2---2-------|
B|---0---0---0---0---0---0---0---0---------------------------------------|
G|-----------------------------------------------------------------------|
D|-----------------------------------------------------------------------|
A|---------------------------------5---5---5---5---5---5---5---5---------|
E|-3---3---3---3---3---3---3---3-----------------------------------------|

   A shot of air, you know something
                                   strong,                 if you 


e|---3---3---3---3---2---2---2---2---0---0---0---0---0---0---0---0-------|
B|-----------------------------------------------------------------------|
G|-----------------------------------------------------------------------|
D|-2---2---2---2---0---0---0---0-----------------------------------------|
A|---------------------------------3---3---3---3---3---3---3---3---------|
E|-----------------------------------------------------------------------|

   build a wall unmade, make sure
                          that it falls


e|-----------------------------------2---2---2---2---2---2---2---2-------|
B|---0---0---0---0---0---0---0---0---------------------------------------|
G|-----------------------------------------------------------------------|
D|-----------------------------------------------------------------------|
A|---------------------------------5---5---5---5---5---5---5---5---------|
E|-3---3---3---3---3---3---3---3-----------------------------------------|

   Set it off, Glow, Something     Beautiful                Would you


e|---3---3---3---3---2---2---2---2---0---0---0---0---0---0---0---0-------|
B|-----------------------------------------------------------------------|
G|-----------------------------------------------------------------------|
D|-2---2---2---2---0---0---0---0-----------------------------------------|
A|---------------------------------3---3---3---3---3---3---3---3---------|
E|-----------------------------------------------------------------------|

   give away your throne for       love?


e|-3------------------2-----------------0--------------------------------|
B|-----------------------------------------------------------------------|
G|-----------------------------------------------------------------------|
D|-----------------------------------------------------------------------|
A|-----------------------------------------------------------------------|
E|-----------------------------------------------------------------------|

   Don't tell me it's real, you feel so cold in my arms


e|-3-------------------2-----------0-------------------------------------|
B|-----------------------------------------------------------------------|
G|-----------------------------------------------------------------------|
D|-----------------------------------------------------------------------|
A|-----------------------------------------------------------------------|
E|-----------------------------------------------------------------------|

   Can you tell me how we could be drifting apart?


e|-0---3-----------------------------------------------------------------|
B|---------5---3---0-------------3------------3--------------------------|
G|---------------------0---2/4-------0---2/4-------0---------------------|
D|-----------------------------------------------------2-----------------|
A|-----------------------------------------------------------------------|
E|-----------------------------------------------------------------------|

   Ooo Ee  Ooo Ooo Ooo                   Oooo Ee   Ooooo


e|-0---3-----------------------------------------------------------------|
B|---------5---3---0-------------3------------3--------5-----------------|
G|---------------------0---2/4-------0---2/4-------0---------------------|
D|-----------------------------------------------------------------------|
A|-----------------------------------------------------------------------|
E|-----------------------------------------------------------------------|

   Ooo Ee  Ooo Ooo Ooo                   Oooo Ee   Ooooo


e|-----------------------------------2---2---2---2---2---2---2---2-------|
B|---0---0---0---0---0---0---0---0---------------------------------------|
G|-----------------------------------------------------------------------|
D|-----------------------------------------------------------------------|
A|---------------------------------5---5---5---5---5---5---5---5---------|
E|-3---3---3---3---3---3---3---3-----------------------------------------|

   You draw me near, I know, 
                             something's wrong         Your faded


e|---3---3---3---3---2---2---2---2---0---0---0---0---0---0---0---0-------|
B|-----------------------------------------------------------------------|
G|-----------------------------------------------------------------------|
D|-2---2---2---2---0---0---0---0-----------------------------------------|
A|---------------------------------3---3---3---3---3---3---3---3---------|
E|-----------------------------------------------------------------------|

   smile strikes me
   down but        I'm not ready at all


e|-----------------------------------2---2---2---2---2---2---2---2-------|
B|---0---0---0---0---0---0---0---0---------------------------------------|
G|-----------------------------------------------------------------------|
D|-----------------------------------------------------------------------|
A|---------------------------------5---5---5---5---5---5---5---5---------|
E|-3---3---3---3---3---3---3---3-----------------------------------------|

   Turn away to go someplace       beautiful


e|---3---3---3---3---2---2---2---2---0---0---0---0---0---0---0---0-------|
B|-----------------------------------------------------------------------|
G|-----------------------------------------------------------------------|
D|-2---2---2---2---0---0---0---0-----------------------------------------|
A|---------------------------------3---3---3---3---3---3---3---3---------|
E|-----------------------------------------------------------------------|

   Somewhere you 
   cannot          escape and I can't go


e|-3------------------2-----------------0--------------------------------|
B|-----------------------------------------------------------------------|
G|-----------------------------------------------------------------------|
D|-----------------------------------------------------------------------|
A|-----------------------------------------------------------------------|
E|-----------------------------------------------------------------------|

   Don't tell me it's real, you feel so cold in my arms


e|-3-------------------2-----------0-------------------------------------|
B|-----------------------------------------------------------------------|
G|-----------------------------------------------------------------------|
D|-----------------------------------------------------------------------|
A|-----------------------------------------------------------------------|
E|-----------------------------------------------------------------------|

   Can you tell me how we could be drifting apart?


e|-0---3-----------------------------------------------------------------|
B|---------5---3---0-------------3------------3--------------------------|
G|---------------------0---2/4-------0---2/4-------0---------------------|
D|-----------------------------------------------------2-----------------|
A|-----------------------------------------------------------------------|
E|-----------------------------------------------------------------------|

   Ooo Ee  Ooo Ooo Ooo                   Oooo Ee   Ooooo


e|-0---3-----------------------------------------------------------------|
B|---------5---3---0-------------3------------3--------5-----------------|
G|---------------------0---2/4-------0---2/4-------0---------------------|
D|-----------------------------------------------------------------------|
A|-----------------------------------------------------------------------|
E|-----------------------------------------------------------------------|

   Ooo Ee  Ooo Ooo Ooo                   Oooo Ee   Ooooo


e|-0---3-----------------------------------------------------------------|
B|---------5---3---0-------------3------------3--------------------------|
G|---------------------0---2/4-------0---2/4-------0---------------------|
D|-----------------------------------------------------2-----------------|
A|-----------------------------------------------------------------------|
E|-----------------------------------------------------------------------|


e|-0---3-----------------------------------------------------------------|
B|---------5---3---0-------------3------------3--------5-----------------|
G|---------------------0---2/4-------0---2/4-------0---------------------|
D|-----------------------------------------------------------------------|
A|-----------------------------------------------------------------------|
E|-----------------------------------------------------------------------|


e|-0---3-----------------------------------------------------------------|
B|---------5---3---0-------------3------------3--------5-----------------|
G|---------------------0---2/4-------0---2/4-------0---------------------|
D|-----------------------------------------------------------------------|
A|-----------------------------------------------------------------------|
E|-----------------------------------------------------------------------|


e|-0---3-----------------------------------------------------------------|
B|---------5---3---0-------------3------------3--------5-----------------|
G|---------------------0---2/4-------0---2/4-------0---------------------|
D|-----------------------------------------------------------------------|
A|-----------------------------------------------------------------------|
E|-----------------------------------------------------------------------|


e|-0---3-----------------------------------------------------------------|
B|---------5---3---0-------------3------------3--------------------------|
G|---------------------0---2/4-------0---2/4-------0---------------------|
D|-----------------------------------------------------2-----------------|
A|-----------------------------------------------------------------------|
E|-----------------------------------------------------------------------|

   Ooo Ee  Ooo Ooo Ooo                   Oooo Ee   Ooooo


e|-0---3-----------------------------------------------------------------|
B|---------5---3---0-------------3------------3--------5-----------------|
G|---------------------0---2/4-------0---2/4-------0---------------------|
D|-----------------------------------------------------------------------|
A|-----------------------------------------------------------------------|
E|-----------------------------------------------------------------------|

   Ooo Ee  Ooo Ooo Ooo                   Oooo Ee   Ooooo


e|-0---3-----------------------------------------------------------------|
B|---------5---3---0-------------3------------3--------------------------|
G|---------------------0---2/4-------0---2/4-------0---------------------|
D|-----------------------------------------------------2-----------------|
A|-----------------------------------------------------------------------|
E|-----------------------------------------------------------------------|

   Ooo Ee  Ooo Ooo Ooo                   Oooo Ee   Ooooo


e|-0---3-----------------------------------------------------------------|
B|---------5---3---0-------------3------------3--------5-----------------|
G|---------------------0---2/4-------0---2/4-------0---------------------|
D|-----------------------------------------------------------------------|
A|-----------------------------------------------------------------------|
E|-----------------------------------------------------------------------|

   Ooo Ee  Ooo Ooo Ooo                   Oooo Ee   Ooooo
Добавлено: 16.11.2015
Вам также может быть интересно:
Другие материалы по этой песне:
  • Аккорды и текст

Страница создана 16.11.2015
http://primanota.ru/alfred-hall/someplace-beautiful-chords.htm
Привет, Гость.
Предлагаем пройти революционный курс по гитаре.
Подарок от PrimaNota.Ru, забирай!