PrimaNota.ru - самый крупный в мире бесплатный архив песенных текстов, аккордов, табулатур и нот


Alexz Johnson - Fade To Black - текст песни, таба, видео

Регистрация Запомнить меня
Войти через:  Facebook Google Twitter Vk Yandex Mail.ru

Alexz Johnson - Fade To Black - текст песни, таба, видео

Печатать
Просмотров: 166
Artist: Alexz Johnson
Song: Fade To Black
Album: Songs From Instant Star 2
Tabbed By: Adrian Oczos aka fredi

Song tunning is DADGBE (dropped D)

Intro

E|-----------------------------|
B|-----------------------------|
G|-8h10-10-10p8-8--10---8------| x4
D|--------------------8---8h10-|
A|-----------------------------|
D|-----------------------------|

1st Verse

E|----------|    |----------|
B|----------|    |----------|
G|-5--7-8---| x2 |-5-3--5-7-|
D|-5--7-8-6-|    |-3-3--3-5-|
A|-3--5-6-6-|    |-3-1--3-5-|
D|--------6-|    |----------|
  Strumming not shown.

Chorus

E|-11-------10-------8------8-----|    |--------|    |----|
B|----11-------11------9------9---|    |--------|    |----|
G|-------8--------8------8------8-| x3 |--------| x3 |----|
D|--------------------------------|    |-10-8-6-|    |-10-|
A|--------------------------------|    |-10-8-6-|    |-10-|
D|--------------------------------|    |-10-8-6-|    |-10-|
                                        Strumming not shown.
2nd Verse

E|-----------------------------|
B|-----------------------------|
G|-8h10-10-10p8-8--10---8------|
D|--------------------8---8h10-|
A|-----------------------------|
D|-----------------------------|

E|-----------|----------------|-----------|----------|
B|-----------|----------------|-----------|----------|
G|------8----|------8------12-|------8----|------8---|
D|-8-10---10-|-8-10---10---10-|-8-10---10-|-8-10---6-|
A|-----------|--------10---10-|-----------|--------6-|
D|-----------|--------10---10-|-----------|--------6-|

E|------------------|---------------|
B|------------------|---------------|
G|------8----10-----|-8----10-------|
D|-8-10---10------8-|---10----10--9-|
A|------------------|---------------|
D|------------------|---------------|

Chorus

E|-11-------10-------8------8-----|    |--------|
B|----11-------11------9------9---|    |--------|
G|-------8--------8------8------8-| x3 |--------| x3
D|--------------------------------|    |-10-8-6-|
A|--------------------------------|    |-10-8-6-|
D|--------------------------------|    |-10-8-6-|
                                        Strumming not shown.
Break

E|---------------------|
B|---------------------|
G|-4-6-8---4-6-9-11-13-|
D|-4-6-8---4-6-9-11-13-|
A|-2-4-6---2-4-7-9--11-|
D|---------------------|
  Strumming not shown.

Chorus

E|-11-------10-------8------8-----|
B|----11-------11------9------9---|
G|-------8--------8------8------8-| x3
D|--------------------------------|
A|--------------------------------|
D|--------------------------------|

E|--------------------------------------|
B|--------------------------------------|
G|----8---------8---------8------10-8-7-| x3
D|-10---10---10---10---10---10----------|
A|--------------------------------------|
D|--------------------------------------|

E|-11-------10-------8------8-----|
B|----11-------11------9------9---|
G|-------8--------8------8------8-| x3
D|--------------------------------|
A|--------------------------------|
D|--------------------------------|

Ending

E|----11---------11---------11------13-11-10-|
B|-13----13---13----13---13----13------------|
G|-------------------------------------------| x2
D|-------------------------------------------|
A|-------------------------------------------|
D|-------------------------------------------|

E|-13h15------11---------11----|-----------------------------------|
B|---------13----13---13----13-|-11-9------------------------------|
G|-----------------------------|------12---12h13p12---10h12p10---8-|
D|-----------------------------|-----------------------------------|
A|-----------------------------|-----------------------------------|
D|-----------------------------|-----------------------------------|

That's all. Hope you like it.
Добавлено: 21.06.2012
Другие материалы по этой песне:
  • Аккорды и текст

Страница создана 03.03.2012
http://primanota.ru/alexz-johnson/fade-to-black-chords.htm
Привет, Гость.
Предлагаем пройти революционный курс по гитаре.
Подарок от PrimaNota.Ru, забирай!