PrimaNota.ru - самый крупный в мире бесплатный архив песенных текстов, аккордов, табулатур и нот


Alexisonfire - We Are The Sound - текст песни, таба, бас-таба, видео

Регистрация Запомнить меня
Войти через:  Facebook Google Twitter Vk Yandex Mail.ru

Alexisonfire - We Are The Sound - текст песни, таба, бас-таба, видео

Печатать
Просмотров: 200
Updated since the original, 100%

Tuning: Eb Ab Db Gb Bb Eb


Guitar 1/////////////////////////////////

Intro (00:00 – 00:14) 

Eb|-------------------------|
Bb|-------------------------|
Gb|-------------------------| x8 
Db|-99-99-999-9--99-99-99---|
Ab|-xx-xx-xxx-x--xx-xx-xx---|
Eb|-77-77-777-7--77-77-77---|

Verse 1 (00:14 – 00:45)

Eb|----------------------------|
Bb|----------------------------|
Gb|------------7-5-----5-7-----| x2
Db|-9---9----7-----7-5-----8---|
Ab|-x---10---x-------------x---|
Eb|-7---7----5-------------6---|

Eb|-------------------------------------------------|
Bb|-------------------------------------------------|
Gb|-------------------------------------------------| 
Db|-9999999\/99999999/121212121212/141414\9999999---|
Ab|-xxxxxxx\/xxxxxxxx/x-x-x-x-x-x-/x-x-x-\xxxxxxx---|
Eb|-7777777\/77777777/101010101010/121212\7777777---|

Eb|----------------------------|
Bb|----------------------------|
Gb|------------7-5-----5-7-----|
Db|-9---9----7-----7-5-----8---|
Ab|-x---10---x-------------x---|
Eb|-7---7----5-------------6---|

Eb|-------------------------|
Bb|-------------------------|
Gb|-------------------------| 
Db|-99-99-999-9--99-99-99---|
Ab|-xx-xx-xxx-x--xx-xx-xx---|
Eb|-77-77-777-7--77-77-77---|

Verse 2 (00:45 – 00:59)

Eb|---------------------| 
Bb|---------------------| 
Gb|-----------------8---| 
Db|-9--------7---8-8----| 
Ab|-x--------x---x------| 
Eb|-7--------5---6------|

Eb|-------------------| 
Bb|-------------------| 
Gb|-------------------| 
Db|-/9---9----7---8---| 
Ab|-/x---10---x---x---| 
Eb|-/7---7----5---6---|

Pre-Chorus (00:59 – 01:14)

Eb|------------------------------------|
Bb|------------------------------------|
Gb|------------------------------------| 
Db|-9999999-77777777-5555555-2222222---|
Ab|-xxxxxxx-xxxxxxxx-xxxxxxx-xxxxxxx---|
Eb|-7777777-55555555-3333333-0000000---|

Eb|------------------------------------------| 
Bb|------------------------------------------| 
Gb|------------------------------------------| 
Db|-9999999-9999999999999--7777777-8888888---| 
Ab|-xxxxxxx-10101010101010-xxxxxxx-xxxxxxx---| 
Eb|-7777777-7-7-7-7-7-7-7--5555555-6666666---|

Chorus (01:14 – 01:42)

Eb|-------------------| 
Bb|-------------------| 
Gb|-------------------| x7
Db|-77-7--7-9-9-9-5---| 
Ab|-77-7--7-9-9-9-5---| 
Eb|-55-5--5-7-7-7-3---|

Eb|-----------------| 
Bb|-----------------| 
Gb|-----------------|
Db|-77-7--7-9-9-9---| 
Ab|-77-7--7-9-9-9---| 
Eb|-55-5--5-7-7-7---| 

Verse 3 (01:42 – 01:57)

Eb|----------------------------|
Bb|----------------------------|
Gb|------------7-5-----5-7-----| x2
Db|-9---9----7-----7-5-----8---|
Ab|-x---10---7-------------8---|
Eb|-7---7----5-------------6---|

Pre-Chorus (01:57 – 02:12)

Eb|------------------------------------|
Bb|------------------------------------|
Gb|------------------------------------| 
Db|-9999999-77777777-5555555-2222222---|
Ab|-xxxxxxx-xxxxxxxx-xxxxxxx-xxxxxxx---|
Eb|-7777777-55555555-3333333-0000000---|

Eb|------------------------------------------| 
Bb|------------------------------------------| 
Gb|------------------------------------------| 
Db|-9999999-9999999999999--7777777-8888888---| 
Ab|-xxxxxxx-10101010101010-xxxxxxx-xxxxxxx---| 
Eb|-7777777-7-7-7-7-7-7-7--5555555-6666666---|

Bridge (02:12 – 02:41)

Eb|-----------------------------| 
Bb|-----------------------------| 
Gb|-----------------------------|x4
Db|-77-7--7-9-9-9-77-7--7-9-9---| 
Ab|-77-7--7-9-9-9-77-7--7-9-9---| 
Eb|-55-5--5-7-7-7-55-5--5-7-7---|

Interlude (02:41 – 02:55)

Eb|-------------------------|
Bb|-------------------------|
Gb|-------------------------| x8 
Db|-99-99-999-9--99-99-99---|
Ab|-xx-xx-xxx-x--xx-xx-xx---|
Eb|-77-77-777-7--77-77-77---|

Chorus 2 (02:55 – 03:40)

Eb|-------------------| 
Bb|-------------------| 
Gb|-------------------| x9 
Db|-77-7--7-9-9-9-5---| 
Ab|-77-7--7-9-9-9-5---| 
Eb|-55-5--5-7-7-7-3---|

Eb|-------------------| 
Bb|-------------------| 
Gb|-------------------|
Db|-77-7--7-9-9---5---| 
Ab|-77-7--7-9-9---5---| 
Eb|-55-5--5-7-7---3---|

Guitar 2////////////////////////////////////////////

Intro (00:00 – 00:14) 

Eb|--------------------------------------|
Bb|--------------------------------------|
Gb|-1414-1414-141414-14-1414-1414-1414---| x2
Db|-x-x--x-x--x-x-x--x--x-x--x-x--x-x----|
Ab|-1212-1212-121212-12-1212-1212-1212---|
Eb|--------------------------------------|

Eb|--------------------------------------|
Bb|--------------------------------------|
Gb|-1414-1414-141414-14-1414-1414-1414---|
Db|-x-x--x-x--x-x-x--x--x-x--x-x--x-x----|
Ab|-1212-1212-121212-12-1212-1212-1212---|
Eb|--------------------------------------|

Eb|---------------------|
Bb|---------------------|
Gb|-12121212-11111111---|
Db|-x-x-x-x--x-x-x-x----|
Ab|-10101010-9-9-9-9----|
Eb|---------------------|

Verse 1 (00:14 – 00:45)

Eb|----------------------------|
Bb|----------------------------|
Gb|------------7-5-----5-7-----| x2
Db|-9---9----7-----7-5-----8---|
Ab|-x---10---7-------------8---|
Eb|-7---7----5-------------6---|

Eb|---------------------------|
Bb|---------------------------|
Gb|-11-9\-11-9\-11-9\-11-14---|
Db|-x--x\-x--x\-x--x\-x--x----|
Ab|-9--7\-9--7\-9--7\-9--12---|
Eb|---------------------------|

Eb|----------------------------|
Bb|----------------------------|
Gb|-11-9\-11-9\-----------11---|
Db|-x--x\-x--x\-999999-10-x----|
Ab|-9--7\-9--7\-xxxxxx-x--9----|
Eb|-------------777777-8-------|

Eb|---------------------------|
Bb|---------------------------|
Gb|-11-9\-11-9\-11-9\-11-14---|
Db|-x--x\-x--x\-x--x\-x--x----|
Ab|-9--7\-9--7\-9--7\-9--12---|
Eb|---------------------------|

Eb|----------------------------|
Bb|----------------------------|
Gb|-11-9\-11-9\-----------11---|
Db|-x--x\-x--x\-999999-10-x----|
Ab|-9--7\-9--7\-xxxxxx-x--9----|
Eb|-------------777777-8-------| 

Verse 2 (00:45 – 00:59)

Eb|---------------------| 
Bb|---------------------| 
Gb|------------7--------| x2 
Db|-9---9----------8----| 
Ab|-x---10----7-7-8-8---| 
Eb|-7---7----5---6------|

Pre-Chorus (00:59 – 01:14)

Eb|---------------------------|
Bb|---------------------------|
Gb|-11-9\/11-9\/11-9\/11-14---|
Db|-x--x\/x--x\/x--x\/x--x----|
Ab|-9--7\/9--7\/9--7\/9--12---|
Eb|---------------------------|

Eb|----------------------------|
Bb|----------------------------|
Gb|-11-9\/11-9------------11---|
Db|-x--x\/x--x--999999-10-x----|
Ab|-9--7\/9--7--xxxxxx-x--9----|
Eb|-------------777777-8-------|

Eb|---------------------------|
Bb|---------------------------|
Gb|-11-9\/11-9\/11-9\/11-14---|
Db|-x--x\/x--x\/x--x\/x--x----|
Ab|-9--7\/9--7\/9--7\/9--12---|
Eb|---------------------------|

Eb|----------------------------|
Bb|----------------------------|
Gb|-11-9\/11-9------------11---|
Db|-x--x\/x--x--999999-10-x----|
Ab|-9--7\/9--7--xxxxxx-x--9----|
Eb|-------------777777-8-------|

Chorus (01:14 – 01:42)

Eb|-------------------| 
Bb|-------------------| 
Gb|-------------------| x7
Db|-77-7--7-9-9-9-5---| 
Ab|-77-7--7-9-9-9-5---| 
Eb|-55-5--5-7-7-7-3---|

Eb|-----------------| 
Bb|-----------------| 
Gb|-----------------|
Db|-77-7--7-9-9-9---| 
Ab|-77-7--7-9-9-9---| 
Eb|-55-5--5-7-7-7---| 

Verse 3 (01:42 – 01:57)

Eb|----------------------------|
Bb|----------------------------|
Gb|------------7-5-----5-7-----| x2
Db|-9---9----7-----7-5-----8---|
Ab|-x---10---x-------------x---|
Eb|-7---7----5-------------6---|

Pre-Chorus (01:57 – 02:12)

Eb|---------------------------|
Bb|---------------------------|
Gb|-11-9\/11-9\/11-9\/11-14---|
Db|-x--x\/x--x\/x--x\/x--x----|
Ab|-9--7\/9--7\/9--7\/9--12---|
Eb|---------------------------|

Eb|----------------------------|
Bb|----------------------------|
Gb|-11-9\/11-9------------11---|
Db|-x--x\/x--x--999999-10-x----|
Ab|-9--7\/9--7--xxxxxx-x--9----|
Eb|-------------777777-8-------|

Eb|---------------------------|
Bb|---------------------------|
Gb|-11-9\/11-9\/11-9\/11-14---|
Db|-x--x\/x--x\/x--x\/x--x----|
Ab|-9--7\/9--7\/9--7\/9--12---|
Eb|---------------------------|

Eb|----------------------------|
Bb|----------------------------|
Gb|-11-9\/11-9------------11---|
Db|-x--x\/x--x--999999-10-x----|
Ab|-9--7\/9--7--xxxxxx-x--9----|
Eb|-------------777777-8-------|

Bridge (02:12 – 02:41)

Eb|-----------------------------| 
Bb|-----------------------------| 
Gb|-----------------------------|x4
Db|-77-7--7-9-9-9-77-7--7-9-9---| 
Ab|-77-7--7-9-9-9-77-7--7-9-9---| 
Eb|-55-5--5-7-7-7-55-5--5-7-7---|

Interlude (02:41 – 02:55)

Eb|--------------------------------------|
Bb|--------------------------------------|
Gb|-1414-1414-141414-14-1414-1414-1414---|
Db|-x-x--x-x--x-x-x--x--x-x--x-x--x-x----|
Ab|-1212-1212-121212-12-1212-1212-1212---|
Eb|--------------------------------------|

Eb|---------------------|
Bb|---------------------|
Gb|-12121212-11111111---|
Db|-x-x-x-x--x-x-x-x----|
Ab|-10101010-9-9-9-9----|
Eb|---------------------|

Chorus 2 (02:55 – 03:40)

Eb|-------------------| 
Bb|-------------------| 
Gb|-------------------| x9 
Db|-77-7--7-9-9-9-5---| 
Ab|-77-7--7-9-9-9-5---| 
Eb|-55-5--5-7-7-7-3---|

Eb|-------------------| 
Bb|-------------------| 
Gb|-------------------|
Db|-77-7--7-9-9---5---| 
Ab|-77-7--7-9-9---5---| 
Eb|-55-5--5-7-7---3---|
Добавлено: 25.07.2012
Другие материалы по этой песне:
  • Аккорды и текст

Страница создана 25.05.2012
http://primanota.ru/alexisonfire/we-are-the-sound-chords.htm
Привет, Гость.
Предлагаем пройти революционный курс по гитаре.
Подарок от PrimaNota.Ru, забирай!