PrimaNota.ru - самый крупный в мире бесплатный архив песенных текстов, аккордов, табулатур и нот


Alexisonfire - Hey Its Your Funeral Mama - аккорды и текст, таба, видео

Регистрация Запомнить меня
Войти через:  Facebook Google Twitter Vk Yandex Mail.ru

Alexisonfire - Hey Its Your Funeral Mama - аккорды и текст, таба, видео

Печатать
Просмотров: 159
Авторы: Alexisonfire

Hey Its Your Funeral Mama
Alexisonfire
tuned down 1/2 step
listen for rhythms and repeats
tabbed by greg

intro
e-----------------------------------------------------|
B-----------------------------------------------------|
G-6-6-xxxxxxxx-6-6-xxxxxxxx-2-2-xxxxxxxx-2-2-xxxxxxxx-|
D-6-6-xxxxxxxx-6-6-xxxxxxxx-2-2-xxxxxxxx-2-2-xxxxxxxx-|
A-4-4-xxxxxxxx-4-4-xxxxxxxx-0-0-xxxxxxxx-0-0-xxxxxxxx-|
E-----------------------------------------------------|

e--------------------------------------------------------------------|
B--------------------------9~~~------------------------------12-9~~~-|
G----------------9-11p98---------------------------9-11p98---------|
D-----------9-11-------------------------------9-11------------------|
A----7-9/11-----------------------------7-9/11-----------------------|
E-/9---------------------------------/9------------------------------|

verse
e-----------------------------------------------------------|
B---------------------------109-109-109-109-109-109-109-109-|
G-6-6-xxxxxxxx-6-6-xxxxxxxx-9-9-9-9-9-9-9-9-9-9-9-9-9-9-9-9-|
D-6-6-xxxxxxxx-6-6-xxxxxxxx-7-7-7-7-7-7-7-7-7-7-7-7-7-7-7-7-|
A-4-4-xxxxxxxx-4-4-xxxxxxxx-0-0-0-0-0-0-0-0-0-0-0-0-0-0-0-0-|
E-----------------------------------------------------------|

chorus (play intro)

interlude
e---------------------------------------|
B---------------------------------------|
Gadd9--6-6---------/11 11-9-/16-13/1413-|
D/x-x-x-x-6-6/76-/x--x--x-/x--x--x--x--|
Aadd7--4-4-x-x-x-x-/9--9--7-/14-11/1211-|
E---------4-4/54-----------------------|

end this way first time during singing
e---------|
B---------|
G-2-------|
D-2--4----|
A-0--4----|
E----2----|

chorus (intro)

bridge
e--------------------------|
B--------------------------|
G-/16-13-11-/13-11-9-/13-6-|
D-/x--x--x--/x--x--x-/x--x-|
A-/14-11-9--/11-9--7-/11-4-|
E--------------------------|

e---------------------------|
B---------------------------|
G-9-6-4-11-9-14-13-16-------|
D-x-x-x-x--x-x--x--x--------|
A-7-4-2-9--7-12-11-14-------|
E---------------------------|

e---------------|
B---------------|
G-6-------2---6-|
D-6---4---2---6-|
A-4---4---0---4-|
E-----2---------|

chorus(intro)

done.
Добавлено: 08.06.2012
Другие материалы по этой песне:

Страница создана 03.04.2012
http://primanota.ru/alexisonfire/hey-its-your-funeral-mama-chords.htm
Привет, Гость.
Предлагаем пройти революционный курс по гитаре.
Подарок от PrimaNota.Ru, забирай!