PrimaNota.ru - самый крупный в мире бесплатный архив песенных текстов, аккордов, табулатур и нот


Alexisonfire - Heading For The Sun - текст песни, таба, видео

Регистрация Запомнить меня
Войти через:  Facebook Google Twitter Vk Yandex Mail.ru

Alexisonfire - Heading For The Sun - текст песни, таба, видео

Печатать
Просмотров: 182
Уроки эстрадного вокала в Санкт-Петербурге
Авторы: Alexisonfire

-------------------------------------------------------------------------------
			     Heading for the Sun
                               Alexisonfire


-------------------------------------------------------------------------------
Tabbed by: T Kallas

Tuning: Drop C#

verse                             Oooooo...
e|------------------------------|-----------------------------|
B|------------------------------|-----------------------------|
G|------------------------------|-----------------------------|
D|--9---------------------------|--5--------------------------|
A|--9-------------------5-5-2-2-|--5-----------0-2-0-2-0-2-0--|
E|--9-------------------5-5-2-2-|--5-----------0-2-0-2-0-2-0--|


e|------------------------------------|
B|-0----0--0--0--0--0--0--0--0--0--0--|
G|-10-h-11-11-11-11-11-10-10-10-10-10-|
D|------------------------------------|
A|------------------------------------|
E|------------------------------------|

prechorus gtr1          
e|---------------------|
b|---------------------|
G|---------------------|
D|--5---4---9---5---4--|
A|--5---4---9---5---4--|
E|--5---4---9---5---4--|

prechorus gtr2
e|---------------------------------------------------------------------|
B|-----------10-------------------------------------------10------12---|
G|--11--9-11------11-9-7------------------7-----11---9-11------11------|
D|-----------------------9-----7-9----7-9---9-7------------------------|
A|---------------------------------------------------------------------|
E|---------------------------------------------------------------------|

Chorus
e|----------------------------------------|
B|----------------------------------------|
G|--------6---7-9-------------------------|
D|-9------6---7-9---------------4---5-7---|
A|-9------4---5-7----0-2-0-2-2--4---5-7---|
E|-9-----------------0-2-0-2-2--4---5-7---|

bridge gtr 1
e|-----|----------------------|
B|-----|----------------------|
G|-----|----------------------|
D|-9---|---------7-7----------|
A|-9---|-5-5-2-2-7-7-0-2-0-2--|
E|-9---|-5-5-2-2-7-7-0-2-0-2--|
  
bridge gtr 2  Tough to hear, this will get you started... 
e|------------------------------------------10-9-------------------------|
B|------------0-------0------------10-12----------0-0-0--0--0-0-0-0-0-0--|
G|-9-h-11--11---11-11---11--9-h-11-------11-------9-9-9-11-11-7-7-7-4-4--|
D|-----------------------------------------------------------------------|
A|-----------------------------------------------------------------------|
E|-----------------------------------------------------------------------|




************************************

| /   slide up
| \   slide down
| h   hammer-on
| p   pull-off
| ~   vibrato
| +   harmonic
| x   Mute note
| b   Bend
| pb  Pre-bend
| br  Bend release
| pbr Pre-bend release
| brb Bend release bend

************************************
Добавлено: 25.08.2013
Другие материалы по этой песне:
  • Аккорды и текст

Страница создана 25.08.2013
http://primanota.ru/alexisonfire/heading-for-the-sun-chords.htm
Привет, Гость.
Предлагаем пройти революционный курс по гитаре.
Подарок от PrimaNota.Ru, забирай!