PrimaNota.ru - самый крупный в мире бесплатный архив песенных текстов, аккордов, табулатур и нот


Alexisonfire - Accept Crime - таба, видео

Регистрация Запомнить меня
Войти через:  Facebook Google Twitter Vk Yandex Mail.ru

Alexisonfire - Accept Crime - таба, видео

Печатать
Просмотров: 124
Авторы: Alexisonfire

i havent seen any tabs for the new album except for young cardinals
so... heres accept crime or what i hear to be accept crime im fairly
certin that its 100% so enjoy

listen to the song for the rythem

half step down

(intro)
------------------------------------------|
------------------------------------------|
------------------------------------------|
-------7---10---7---3---7---10---10---7---|
---7---7---10---7---3---7---10---x----x---|
-------5---8----5---1---5---8----8----5---|

(verse)
----------------------------------------------|
----------------------------------------------|
---2---2--------------------------------------|
---2---2---7---10---7---3---7---10---10---7---|
---0---0---x---x----x---x---x---x----x----x---|
-----------5---8----5---1---5---8----8----5---|

(chorus)
---------------------------------------|
-------------------1---------------1---|
---2---5-------2---2---2---5-------2---|
---2---5---0---2---3---2---5---0---3---|
---0---3---x---0---3---0---3---x---3---|
-----------3-------------------3-------|

(play it either way, what ever your comfortable with)

-----------------------------------------|
-----------------------------------------|
-----------------------------------------|
---7---10---5---7---3---7---10---5---3---|
---7---10---5---7---3---7---10---5---3---|
---5---8----3---5---1---5---8----3---1---|

verse 2

(end of 2nd chorus)
----------------------------|
----------------------------|
---2---5--------------------|
---2---3---5---3------------|
---0---3---5---3------------|
-----------3---1------------|

                   (play over solo)
---------------   -------------------|
---------------   -------------------|
-----------2---   ---2---5-----------|
---3---5---2---   ---2---5---5---3---|
---3---5---0---   ---0---3---5---3---|
---1---3-------   -----------3---1---|


(solo)
---17--0--12--0--8--0--5--0---------------|
-------------------------------------13---|
-----------------------------12--14-------|
------------------------------------------|
------------------------------------------|
------------------------------------------|


------------------------|
-----------13b-15--17---|
---12--14---------------|
------------------------|
------------------------|
------------------------|

chours 3

---17--------------------|
------15b-17-------------|
-------------------------|
-------------------------|
-------------------------|
-------------------------|
play intro to end
Добавлено: 26.06.2013
Другие материалы по этой песне:
  • Аккорды и текст

Страница создана 26.06.2013
http://primanota.ru/alexisonfire/accept-crime-chords.htm
Привет, Гость.
Предлагаем пройти революционный курс по гитаре.
Подарок от PrimaNota.Ru, забирай!