PrimaNota.ru - самый крупный в мире бесплатный архив песенных текстов, аккордов, табулатур и нот


Alexisonfire - 44 Calibre Love Letter - таба, видео

Регистрация Запомнить меня
Войти через:  Facebook Google Twitter Vk Yandex Mail.ru

Alexisonfire - 44 Calibre Love Letter - таба, видео

Печатать
Просмотров: 88
ALEXISONFIRE
.44 CALIBRE LOVE LETTER 

i didnt write the tab but i did change it to the correct way to play it 
ENJOYY=)

Intro
  Gtr I
  T     T          T    T    T     T          T    T
|--------------------------|--------------------------|
|-------7-(7)--(7)-----11--|-------7-(7)--(7)-----11--|
|-4-(4)------------4s8-----|-4-(4)------------4s8-----|
|--------------------------|--------------------------|
|--------------------------|--------------------------|
|--------------------------|--------------------------|


  T     T          T    T    T     T          T    T
|--------------------------|--------------------------|
|-------7-(7)--(7)-----11--|-------7-(7)--(7)-----11--|
|-4-(4)------------4s8-----|-4-(4)------------4s8-----|
|--------------------------|--------------------------|
|--------------------------|--------------------------|
|--------------------------|--------------------------|


  Gtr I
   T      T            T    T          T      T              T       T
|-----------------------------------|-------------------------------------|
|---------7-(7)----(7)-----11-------|---------7-(7)------(7)--------11----|
|--4-(4)---------------4s8----------|--4-(4)-----------------4s8----------|
|-----------------------------------|-------------------------------------|
|-----------------------------------|-------------------------------------|
|-----------------------------------|-------------------------------------|
|
| Gtr II
|-17--------------------------------|-------------------------------------|
|------------------15---------15h17-|--------13-----(13)-------(13)-------|
|--------16-----17------------------|-16-------------------------------16-|
|-----------------------------------|-------------------------------------|
|-----------------------------------|-------------------------------------|
|-----------------------------------|-------------------------------------|


   T      T            T    T          T      T              T       T
|-----------------------------------|---------------------------------------|
|---------7-(7)----(7)-----11-------|---------7-(7)------(7)--------11------|
|--4-(4)---------------4s8----------|--4-(4)-----------------4s8------------|
|-----------------------------------|---------------------------------------|
|-----------------------------------|---------------------------------------|
|-----------------------------------|---------------------------------------|
|
|-17--------------------------------|---------------------------------------|
|------------------15---------15h17-|--------13-----(13)-------(13)---------|
|--------16-----17------------------|-16-------------------------------16---|
|-----------------------------------|---------------------------------------|
|-----------------------------------|---------------------------------------|
|-----------------------------------|---------------------------------------|


   T      T            T    T          T      T              T       T
|-----------------------------------|-------------------------------------|
|---------7-(7)----(7)-----11-------|---------7-(7)------(7)--------11----|
|--4-(4)---------------4s8----------|--4-(4)-----------------4s8----------|
|-----------------------------------|-------------------------------------|
|-----------------------------------|-------------------------------------|
|-----------------------------------|-------------------------------------|
|
|-17--------------------------------|-------------------------------------|
|------------------15---------15h17-|--------13-----(13)-------(13)-------|
|--------16-----17------------------|-16-------------------------------16-|
|-----------------------------------|-------------------------------------|
|-----------------------------------|-------------------------------------|
|-----------------------------------|-------------------------------------|


   T      T            T    T          T      T              T       T
|-----------------------------------|---------------------------------------|
|---------7-(7)----(7)-----11-------|---------7-(7)------(7)--------11------|
|--4-(4)---------------4s8----------|--4-(4)-----------------4s8------------|
|-----------------------------------|---------------------------------------|
|-----------------------------------|---------------------------------------|
|-----------------------------------|---------------------------------------|
|
|-17--------------------------------|---------------------------------------|
|------------------15---------15h17-|--------13-----(13)-------(13)---------|
|--------16-----17------------------|-16-------------------------------16---|
|-----------------------------------|---------------------------------------|
|-----------------------------------|---------------------------------------|
|-----------------------------------|---------------------------------------|


   T      T              T     T     T      T              T     T
|---------------------------------|---------------------------------|
|---------7-(7)------(7)------11--|---------7-(7)------(7)------11--|
|--4-(4)-----------------4s8------|--4-(4)-----------------4s8------|
|---------------------------------|---------------------------------|
|---------------------------------|---------------------------------|
|---------------------------------|---------------------------------|
|
|---------------------------------|---------------------------------|
|--------13-----(13)-------15-----|--------13-----(13)-------15-----|
|-16-----------------16h17--------|-16-----------------16h17--------|
|---------------------------------|---------------------------------|
|---------------------------------|---------------------------------|
|---------------------------------|---------------------------------|


   T      T              T     T     T      T              T     T
|---------------------------------|----------------------------------|
|---------7-(7)------(7)------11--|---------7-(7)------(7)------11---|
|--4-(4)-----------------4s8------|--4-(4)-----------------4s8-------|
|---------------------------------|----------------------------------|
|---------------------------------|----------------------------------|
|---------------------------------|----------------------------------|
|
|---------------------------------|----------------------------------|
|--------13-----(13)-------15-----|--------13-----(13)-------15------|
|-16-----------------16h17--------|-16-----------------16h17---------|
|---------------------------------|----------------------------------|
|---------------------------------|----------------------------------|
|---------------------------------|----------------------------------|


   T      T            T    T          T      T              T       T
|-----------------------------------|---------------------------------------|
|---------7-(7)----(7)-----11-------|---------7-(7)------(7)--------11------|
|--4-(4)---------------4s8----------|--4-(4)-----------------4s8------------|
|-----------------------------------|---------------------------------------|
|-----------------------------------|---------------------------------------|
|-----------------------------------|---------------------------------------|
|
|-17--------------------------------|---------------------------------------|
|------------------15---------15h17-|--------13-----(13)-------(13)----(13)-|
|--------16-----17------------------|-16------------------------------------|
|-----------------------------------|---------------------------------------|
|-----------------------------------|---------------------------------------|
|-----------------------------------|---------------------------------------|


   T     T          T    T      T      T          T    T
|---------------------------|----------------------------------|
|--------7-(7)--(7)-----11--|----------7-(7)--(7)-----11-------|
|--5-(5)------------5s8-----|---5--(5)------------5s8----------|
|---------------------------|----------------------------------|
|---------------------------|----------------------------------|
|---------------------------|----------------------------------|
|
|                                                        PM|
|---------------------------|----------------------------------|
|---------------------------|----------------------------------|
|-16------------------------|-(16)-----------------------------|
|---------------------------|----------------------------------|
|---------------------------|----------------------------------|
|---------------------------|----------------------------0-0---|
Добавлено: 22.02.2014
Другие материалы по этой песне:
  • Аккорды и текст

Страница создана 22.02.2014
http://primanota.ru/alexisonfire/44-calibre-love-letter-chords.htm
Привет, Гость.
Предлагаем пройти революционный курс по гитаре.
Подарок от PrimaNota.Ru, забирай!