PrimaNota.ru - самый крупный в мире бесплатный архив песенных текстов, аккордов, табулатур и нот


Alexi Murdoch - Someday Soon - таба, видео

Регистрация Запомнить меня
Войти через:  Facebook Google Twitter Vk Yandex Mail.ru

Alexi Murdoch - Someday Soon - таба, видео

Печатать
Просмотров: 167
This is exact tuning and a basic overview of the picking patterns and chords for Alexi 
song Someday soon.

Tuning: (CGCGGc) capo on 1th to 4th (he varies)


Intro / Bridge
c|----------------0-----------------|
G|------------5---------------5-----|
G|--------------------------------0-|
C|------0-------0-------0-------0---|
G|----------------------------------|
C|--0-------0-------0-------0-------|


Verse part 1
c|--------0-------0-------0-|
G|----5-------5-------5-----|
G|------0-------0-------0---|
C|--5-------4-------2-------|
G|--------------------------|
C|--------------------------|

Verse part 2
c|--------------------------|
G|--------5-------5-------5-|
G|----0-------0-------0-----|
C|------0-------0-------0---|
G|--------------------------|
C|--5-------4-------2-------|

Ref part 1
c|--------------------------------0-|
G|----------------0-----------------|
G|------------0---------------0-----|
C|------0-------0-------0-------0---|
G|--2-------2-------2-------2-------|
C|----------------------------------|

Ref part 2
c|--------0-|
G|----------|
G|----0-----|
C|------0---|
G|--4-------|
C|----------|

The easiest way to learn the song is to learn each guitar part and listen to the song, 
figure it out naturally.

I love my father and I love him well
I hope to see him someday soon
I love my father and I love him well
I hope to see him someday soon

'Cause where I live it gets dark at night
The kind of dark heats up the light
Where I live it gets dark at night
The kind of dark heats up the light

And you know that, mother, I'd be lying
If I didn't tell you I'm afraid of dying

And as I dream I'm falling down
The world moves without a sound
Lost as sure as I was found
Sun comes up without a sound

So I up and face another day
And I hope that kindness comes your way
Well I up and face another day
And I hope that kindness comes your way

This for you I pray
Pray for you today

And in the morning I'll be gone
Where for to cannot be told
'Cause in the morning I'll be gone
Where for to cannot be told

A mind filled with memories
Weigh me down, my god

I love my father and I love him well
I hope to see him someday soon
I love my father and I love him well
I hope to see him someday soon
I hope to meet him someday soon
Добавлено: 09.07.2012
Другие материалы по этой песне:
  • Аккорды и текст

Страница создана 09.07.2012
http://primanota.ru/alexi-murdoch/someday-soon-chords.htm
Привет, Гость.
Предлагаем пройти революционный курс по гитаре.
Подарок от PrimaNota.Ru, забирай!