PrimaNota.ru - самый крупный в мире бесплатный архив песенных текстов, аккордов, табулатур и нот


Alexi Laiho - Sioux City Sarsaparilla - таба, видео

Регистрация Запомнить меня
Войти через:  Facebook Google Twitter Vk Yandex Mail.ru

Alexi Laiho - Sioux City Sarsaparilla - таба, видео

Печатать
Просмотров: 213
Уроки эстрадного вокала в Санкт-Петербурге
this is my first tab, it took a really long time to write. i think its all correct but 
is 1 part of the solo i couldnt tab because it had very heavy use of the tremolo bar. 
to the song and you should be able to pick it up by ear though...

enjoy :)



D||------------------------------------------|
A||------------------------------------------|
F||--------------5--------------4------------|
C||--0--5--6--7-----0--4--5--7-----0--5--6--7|
G||------------------------------------------|
C||------------------------------------------|

----------------------------------------|
----------------------------------------|
--5--------------10-----------10-12b----|
--------10-11-12-----10-11-12-----------|
-----10---------------------------------|
----------------------------------------|


--------------------------------------------|
--------------------------------------------|
--------------5--------------4--------------|
--0--5--6--7-----0--4--5--7-----0--5--6--7--|
--------------------------------------------|
--------------------------------------------|


------------------------------------|
-----------------6p-5-6p-5-6p-5-----|
--5--5-0-7-5--------------------7-5-|
-------------7-5--------------------|
------------------------------------|
------------------------------------|

--------------------------------------------|
--------------------------------------------|
--------------5--------------4--------------|
--0--5--6--7-----0--4--5--7-----0--5--6--7--|
--------------------------------------------|
--------------------------------------------|

----------------------------------------|
----------------------------------------|
--5--------------10-----------10-12b----|
--------10-11-12-----10-11-12-----------|
-----10---------------------------------|
----------------------------------------|

--------------------------------------------|
--------------------------------------------|
--------------5--------------4--------------|
--0--5--6--7-----0--4--5--7-----0--5--6--7--|
--------------------------------------------|
--------------------------------------------|

----------------------------------------------|
----------------------------------------------|
--5--------------10-----10-12p-10-13p-10------|
--------10-11-12-----12------------------12-10|
-----10---------------------------------------|
----------------------------------------------|


--------------------------------------------|
--------------------------------------------|
--------------5--------------4--------------|
--0--5--6--7-----0--4--5--7-----0--5--6--7--|
--------------------------------------------|
--------------------------------------------|


----------------------------------------|
----------------------------------------|
--5--------------10-----------10-12b----|
--------10-11-12-----10-11-12-----------|
-----10---------------------------------|
----------------------------------------|


--------------------------------|
--------------------------------|
--------------5--------------4--|
--0--5--6--7-----0--4--5--7-----|
--------------------------------|
--------------------------------|


---------------------------------------|
-----------------15p-13-15p-13p-10h-13-|
---------------------------------------|
---------------------------------------|
---------------------------------------|
---------------------------------------|

--15p-13p-10-----------------------------------------------------------|
-------------15p-13p-10-13p-10-----------------------------------------|
-------------------------------12-17p-12p-10-14-10---------------------|
---------------------------------------------------12-17-12-10-15-10-12|
-----------------------------------------------------------------------|
-----------------------------------------------------------------------|



-------------------------------------------|
-------------------------------------------|
-------------------------------------------|
-------------------------------------------|
-------------------------------------------|
--0--0----0--0----0--0----0--0----0--0----0|

---------------------------------------------|
---------------------------------------------|
---------------------------------------------|
---------------------------------------------|
---------------------------------------------|
--0----0--0----0--0----0--0----0--0--0--0--0-|


---------------------------------------------|
---------------------------------------------|
---------------------------------------------|
---------------------------------------------|
---------------------------------------------|
--0--0----0--0----0--0----0--0----0--0----0--|


------------------------------------------|
------------------------------------------|
------------------------------------------|
------------------------------------------|
-----------------------5p-3-------3-------|
--0----0--0----0--0---------7--5----7-5-3-|

---------------------------------------------|
---------------------------------------------|
---------------------------------------------|
---------------------------------------------|
---------------------------------------------|
--0--0----0--0----0--0----0--0----0--0----0--|


-------------------------------------------|
-------------------------------------------|
-------------------------------------------|
----------------------------------------3--|
----------------------------------------1--|
--0----0--0----0--0----0--0----0--0--0-----|

---------------------------------------------|
---------------------------------------------|
---------------------------------------------|
---------------------------------------------|
---------------------------------------------|
--0--0----0--0----0--0----0--0----0--0----0--|


------------------------------------------|
------------------------------------------|
------------------------------------------|
------------------------------------------|
-----------------------5p-3-------3-------|
--0----0--0----0--0---------7--5----7-5-3-|


---------------------------------------------|
---------------------------------------------|
---------------------------------------------|
---------------------------------------------|
---------------------------------------------|
--0--0----0--0----0--0----0--0----0--0----0--|


---------------------------------------|
---------------------------------------|
---------------------------------------|
---------------------------------------|
-----------------------3s-5----3s-5----|
--0----0--0----0--0----3s-5----3s-5----|


---------------------------------------------|
---------------------------------------------|
---------------------------------------------|
---------------------------------------------|
----------------------------------1--1----1--|
--3--3----3--3----5--5----5--5---------------|


---------------------------------------------|
---------------------------------------------|
---------------------------------------------|
---------------------------------------------|
--1----3--3----3--3----0--0----0--0----1--1--|
---------------------------------------------|


|------------------------|
|------------------------|
|--7s--10----------------|
|--7s--10----------------|
|------------------------|
|------------------------|


--------------------|-----------------------|
--------------------|--5--------------------|
--12----------------|--5-------5s--7--------|
--12----------------|----------5s--7--------|
--------------------|-----------------------|
--------------------|-----------------------|


-----------------------|
-----------------------|
-------<>7-------------|
-----------------------|
-----------------------|
-----------------------|


---------------------------|
---------------------------|
--7s--10------------12/----|
--7s--10------------12/----|
---------------------------|
---------------------------|

-------20-------------------------|
--20b------20-20-20-20-20\--------|
-----------------------19\--------|
----------------------------------|
----------------------------------|
----------------------------------|


---------------------------------|
---------------------------------|
--7p--5h--7--9p--7h--9--10p--9h--|
---------------------------------|
---------------------------------|
---------------------------------|


----------10-------------------|
------10------10--<>13b--------|
--10---------------------------|
-------------------------------|
-------------------------------|
-------------------------------|

---------------------------------------------|
--------------19--------------17-------------|
--------16-18-----------16-18-----------16-18|
--16-19-----------16-19-----------16-19------|
---------------------------------------------|
---------------------------------------------|


------------------17--------17-20-19\----|
--19--------17-18-----18-19--------------|
------17-18------------------------------|
-----------------------------------------|
-----------------------------------------|
-----------------------------------------|

---------------------------------------------|
--------------19--------------17-------------|
--------16-18-----------16-18-----------16-17|
--16-19-----------16-19-----------16-19------|
---------------------------------------------|
---------------------------------------------|

-------------------------------------------------|
--------------16-17-18-17-16----17-16------------|
--18-16-17-18----------------18-------19-18-16---|
-----------------------------------------------19|
-------------------------------------------------|
-------------------------------------------------|


---------------------------------------------|
--------------19--------------17-------------|
--------16-18-----------16-18-----------16-18|
--16-19-----------16-19-----------16-19------|
---------------------------------------------|
---------------------------------------------|


----------------------------17-20-19\----|
--19------------------17-19--------------|
------------16-18-21---------------------|
------16-19------------------------------|
-----------------------------------------|
-----------------------------------------|


--------------------------------------17-19-|
--------------19--------------17--19--------|
--------16-18-----------16-18---------------|
--16-19-----------16-19---------------------|
--------------------------------------------|
--------------------------------------------|

    H
---21b---------|      after this bend  pickslide down neck into interlude
--(21)b--------|
---------------|
---------------|
---------------|
---------------|


--------17----16-------------17----16-------|
-----15----------17----------------------17-|
--14-------14-------14-14-14----14----14----|
--------------------------------------------|
--------------------------------------------|
--------------------------------------------|


--------17----16-------------17-16-19----17-|
-----15----------17-------------------19----|
--14-------14-------14-14-14----------------|
--------------------------------------------|
--------------------------------------------|
--------------------------------------------|


--16s-14----17----16-------14----17-16-------16-|
---------14----14----17-14----14-------12-12----|
------------------------------------------------|
------------------------------------------------|
------------------------------------------------|
------------------------------------------------|


-----14-17----16-------------16-16----12----|
--14-------14----17-14-14-14-------14----12-|
--------------------------------------------|
--------------------------------------------|
--------------------------------------------|
--------------------------------------------|


--------17----16-------------17----16-------|
-----15----------17----------------------17-|
--14-------14-------14-14-14----14----14----|
--------------------------------------------|
--------------------------------------------|
--------------------------------------------|

--------17----16-------------17-16-19----17-|
-----15----------17-------------------19----|
--14-------14-------14-14-14----------------|
--------------------------------------------|
--------------------------------------------|
--------------------------------------------|

--16s-14----17----16-------14----17-16-------16-|
---------14----14----17-14----14-------12-12----|
------------------------------------------------|
------------------------------------------------|
------------------------------------------------|
------------------------------------------------|

-----14-17----16-------------16-16----12----|
--14-------14----17-14-14-14-------14----12-|
--------------------------------------------|
--------------------------------------------|
--------------------------------------------|
--------------------------------------------|

--------17----16-------------17----16-------|
-----15----------17----------------------17-|
--14-------14-------14-14-14----14----14----|
--------------------------------------------|
--------------------------------------------|
--------------------------------------------|


--------17----16-------------17-16-19----17-|
-----15----------17-------------------19----|
--14-------14-------14-14-14----------------|
--------------------------------------------|
--------------------------------------------|
--------------------------------------------|


--16s-14----17----16-------14----17-16-------16-|
---------14----14----17-14----14-------12-12----|
------------------------------------------------|
------------------------------------------------|
------------------------------------------------|
------------------------------------------------|

-----14-17----16-------------16-16----12----|
--14-------14----17-14-14-14-------14----12-|
--------------------------------------------|
--------------------------------------------|
--------------------------------------------|
--------------------------------------------|

--------17----16-------------17----16-------|
-----15----------17----------------------17-|
--14-------14-------14-14-14----14----14----|
--------------------------------------------|
--------------------------------------------|
--------------------------------------------|


--------17----16-------------17-16-19----17-|
-----15----------17-------------------19----|
--14-------14-------14-14-14----------------|
--------------------------------------------|
--------------------------------------------|
--------------------------------------------|


--16s-14----17----16-------14----17-16-------16-|
---------14----14----17-14----14-------12-12----|
------------------------------------------------|
------------------------------------------------|
------------------------------------------------|
------------------------------------------------|


-----14-17----16-------------16-16----12----|
--14-------14----17-14-14-14-------14----12-|
--------------------------------------------|
--------------------------------------------|
--------------------------------------------|
--------------------------------------------|

--17-16-14----14---------------------------------|
-----------17----17-16-14-16-14------------------|
--------------------------------17-16-14---------|
-----------------------------------------16-14---|
-----------------------------------------------16|
-------------------------------------------------|


-------------------------|
-------------------------|
-------------------------|
-------------------------|
--15-14------------------|
-------------------------|


------------------------|
------------------------|
--7s--10----------------|
--7s--10----------------|
------------------------|
------------------------|


--------------------|-----------------------|
--------------------|--5--------------------|
--12----------------|--5-------5s--7--------|
--12----------------|----------5s--7--------|
--------------------|-----------------------|
--------------------|-----------------------|

-----------------------|
-----------------------|
-------<>7-------------|
-----------------------|
-----------------------|
-----------------------|


------------------------|
------------------------|
--7s--10----------------|
--7s--10----------------|
------------------------|
------------------------|

--------------------------|
--7--------8--------------|
--9b------10b-------------|
--------------------------|
--------------------------|
--------------------------|


-----------------------------|
--3---------5----------6-----|
--5b--------7b---------8b----|
-----------------------------|
-----------------------------|
-----------------------------|


----------------------------|
-------8--------------------|
------10b-------<>14--------|
----------------------------|
----------------------------|
----------------------------|


------------------------------|
--13--------13-------------10-|
--12b-------12b---------------|
------------------------------|
------------------------------|
------------------------------|


--------------------------------------------------|
--13p-10----12-10-------10------------------------|
---------13-------13-12----13-12-10-13-12-10----10|
---------------------------------------------12---|
--------------------------------------------------|
--------------------------------------------------|


----------10----------------------------------------|
-------10----13p-10h-12p-10----10-------------------|
--12b-----------------------13----13p-12-10----12---|
--------------------------------------------12----12|
----------------------------------------------------|
----------------------------------------------------|


----------------------------------------------------|
----------------------------------------------------|
--<>10br--------------------------------------------|
----------12-10-------------------10----12p-10------|
----------------12-11-10----10-12----12--------12-10|
-------------------------13-------------------------|

------------------------------------|
------------10--------(12)----------|
------------10---------12p-10-------|
--12b--------------x----------12--x-|
-------------------x----------------|
------------------------------------|


--------------------------------------|
-------------13---------(12)----------|
------------(12)---------12p-10-------|
--12b----------------x----------12--x-|
---------------------x----------------|
--------------------------------------|


--13p-10-------15-13-------17-13-------20-17------|
---------13-12-------15-13-------15-13-------18-17|
--------------------------------------------------|
--------------------------------------------------|
--------------------------------------------------|
--------------------------------------------------|

--20s-22-20-------24-20-------24b---------|
------------22-20-------22-20-------------|
------------------------------------------|
------------------------------------------|
------------------------------------------|
------------------------------------------|


-----------------------------------------|
-----------------------------------------|
-----------------------------------------|
-----------------------------------------|
--0--2---2--2--0----0h-2-(2)-2--2--------|
--0h-2---2--2p-0----0h-2-(2)-2--2-5br----|


------------------------------------------|
------------------------------------------|
-------------------------------------2h-4-|
--------------------2h-5p-4p-2h-4h-5------|
--0h-2---2--2p-0--------------------------|
--0h-2---2--2p-0--------------------------|


----------------------------------------|
----------------------------------------|
----------------------------------------|
----------------------------------------|
--0--2---2--2--0----0h-2-2--2--2--------|
--0h-2---2--2p-0----0h-2-2--2--2-5br----|


-------------------------------------------|
-------------------------------------------|
-------------------------------------------|
--------------------7----------------------|
--0h-2---2--2p-0----5------8---------------|
--0h-2---2--2p-0------7------6---6---6---6-|


--------------------------------------|
--------------------------------------|
--------------------------------------|
--------------------------------------|
--0h-2---0-2p-0----0h-2-(2)-0-2h-4----|
--0h-2---0-2p-0----0h-2-(2)-0-2h-4----|


-----------------------------------------|
-----------------------------------------|
------------------------------------2h-4-|
--------------------2h-5p-4p-2-4h-5------|
--0h-2---2--2p-0-------------------------|
--0h-2---2--2p-0-------------------------|


----------------------------------------|
----------------------------------------|
----------------------------------------|
----------------------------------------|
--0--2---2--2--0----0h-2-2--2--2--------|
--0h-2---2--2p-0----0h-2-2--2--2-5br----|


----------------------------------|
----------------------------------|
----------------------------------|
----------------------------------|
--0--2---2--2--0----<>3----<>3----|
--0h-2---2--2p-0------------------|


---------------------------------------|
---------------------------------------|
---------------------------------------|
--4h-5-5--5--5-4----4h-5-5--5--9S-7----|
---------------------------------------|
---------------------------------------|


-------------------------------------------------|
-------------------------------------------------|
-------------------------------------------------|
--4h-5-5--5--5p-4---------------------------11-12|
---------------------10h-14p-12p-10h-12h-14------|
-------------------------------------------------|


---------------------------------------|
---------------------------------------|
-------------------------------4S-2----|
--4h-5-5--5--5-4----4h-5-5--5----------|
---------------------------------------|
---------------------------------------|

---------------------8p-5-------5-5p-2---2-|
--------------------------7---7--------4---|
----------------------------8--------------|
--4h-5-5--5--5p-4--------------------------|
-------------------------------------------|
-------------------------------------------|


---------------------------------------|
---------------------------------------|
-------------------------------4S-2----|
--4h-5-5--5--5-4----4h-5-5--5----------|
---------------------------------------|
---------------------------------------|


-------------------------------------------------|
-------------------------------------------------|
-------------------------------------------------|
--4h-5-5--5--5p-4---------------------------11-12|
---------------------10h-14p-12p-10h-12h-14------|
-------------------------------------------------|


---------------------------------------|
---------------------------------------|
-------------------------------4S-2----|
--4h-5-5--5--5-4----4h-5-5--5----------|
---------------------------------------|
---------------------------------------|


--8p-5-------5-5p-2-------2-8p-5-------5-11p-8----------8-|
-------7---7--------4---4--------7---7---------10----10---|
---------8------------5------------8--------------11------|
----------------------------------------------------------|
----------------------------------------------------------|
----------------------------------------------------------|


--14p-11----------11-11p-8----------8-13----13--|
---------13----13----------10----10---16b---16b-|
------------14----------------11----------------|
------------------------------------------------|
------------------------------------------------|
------------------------------------------------|


--------------------------------------------|
--------------------------------------------|
--------------5--------------4--------------|
--0--5--6--7-----0--4--5--7-----0--5--6--7--|
--------------------------------------------|
--------------------------------------------|


----------------------------------------|
----------------------------------------|
--5--------------10-----------10-12b----|
--------10-11-12-----10-11-12-----------|
-----10---------------------------------|
----------------------------------------|


--------------------------------------------|
--------------------------------------------|
--------------5--------------4--------------|
--0--5--6--7-----0--4--5--7-----0--5--6--7--|
--------------------------------------------|
--------------------------------------------|

------------------------------------|
-----------------6p-5-6p-5-6p-5-----|
--5--5-0-7-5--------------------7-5-|
-------------7-5--------------------|
------------------------------------|
------------------------------------|


--------------------------------------------|
--------------------------------------------|
--------------5--------------4--------------|
--0--5--6--7-----0--4--5--7-----0--5--6--7--|
--------------------------------------------|
--------------------------------------------|


----------------------------------------|
----------------------------------------|
--5--------------10-----------10-12b----|
--------10-11-12-----10-11-12-----------|
-----10---------------------------------|
----------------------------------------|


--------------------------------------------|
--------------------------------------------|
--------------5--------------4--------------|
--0--5--6--7-----0--4--5--7-----0--5--6--7--|
--------------------------------------------|
--------------------------------------------|

----------------------------------------------|
----------------------------------------------|
--5--------------10-----10-12p-10-13p-10------|
--------10-11-12-----12------------------12-10|
-----10---------------------------------------|
----------------------------------------------|


---------------------------------------------|
--------------17--------------15-------------|
--------14-16-----------14-16-----------14-16|
--14-17-----------14-17-----------14-17------|
---------------------------------------------|
---------------------------------------------|

------------------15--------15-18-17b----|
--17--------15-17-----16-17--------------|
------15-16------------------------------|
-----------------------------------------|
-----------------------------------------|
-----------------------------------------|

---------------------------------------------|
--------------17--------------15-------------|
--------14-16-----------14-16-----------14-16|
--14-17-----------14-17-----------14-17------|
---------------------------------------------|
---------------------------------------------|


------------------15--------15-18-17b----|
--17--------15-17-----16-17--------------|
------15-16------------------------------|
-----------------------------------------|
-----------------------------------------|
-----------------------------------------|


--12-----------------|
--15b----------------|
---------------------|
---------------------|
---------------------|
---------------------|


--14---------15---------|
--17b--------18b--------|
------------------------|
------------------------|
------------------------|
------------------------|


--------------15h-20p-15----------15h-19-24p-19-17-15-20-15-17-19-20-19-17-15------------|
-----------17------------17----17---------------------------------------------20-19-17-15|
--------16------------------16-----------------------------------------------------------|
-----17----------------------------------------------------------------------------------|
--19-------------------------------------------------------------------------------------|
-----------------------------------------------------------------------------------------|


---------------------------------------------------------------------------------|
---------------------------------------------------------------------------------|
--21p-19p-17p-16-21p-19-21p-19p-17p-16-24p-19-17-16------------------------------|
----------------------------------------------------24-19-17-16-17-19-24-19-17-16|
---------------------------------------------------------------------------------|
---------------------------------------------------------------------------------|

-------------------------------------------------|
-------------------------------------------------|
-----------------------16-17----16-17-19-16-17-19|
--------------16-17-19-------19------------------|
--19-15-17-19------------------------------------|
-------------------------------------------------|

-----------17----17-19-20-19b----19----|
--17-19-20----20-----------------------|
---------------------------------------|
---------------------------------------|
---------------------------------------|
---------------------------------------|


=========================================
SORY I COULDNT TAB THIS 1 SOLO PART. SORY
=========================================

--15b--15-12-------15b--15-12-------15b--15-12|
-------------15-12------------15-12-----------|
----------------------------------------------|
----------------------------------------------|
----------------------------------------------|
----------------------------------------------|


--------17b--17-15-------17b--17-15-------17-15|
--15-12------------17-15------------17-15------|
-----------------------------------------------|
-----------------------------------------------|
-----------------------------------------------|
-----------------------------------------------|


--17-18-17-15-------17----17-18-17-15-------b17-19-15------|
--------------17-15-------------------17-15-----------17-15|
-----------------------------------------------------------|
-----------------------------------------------------------|
-----------------------------------------------------------|
-----------------------------------------------------------|


--17b--20pb-17pb-22pb-17pbr-15--------------------|
--------------------------------20p-15h-17h-20-b17|
--------------------------------------------------|
--------------------------------------------------|
--------------------------------------------------|
--------------------------------------------------|

----------12------12-------12---------------------|
--12---12----15b-----15b------15p-12-14p-12-----12|
--14b---------------------------------------14b---|
--------------------------------------------------|
--------------------------------------------------|
--------------------------------------------------|


---------------------------------------------|
--------------------12-----------------------|
--15-14-12----14----12-----------------------|
-----------14----14--------14-12----------12-|
---------------------------------14-13-12----|
---------------------------------------------|


-------------------------------------------12|
------------------------------12--------12---|
--------------12--------12-14-----12-14------|
-----12-13-14-----12-14----------------------|
--14-----------------------------------------|
---------------------------------------------|


--------------------------------------------------|
--15p-12-14----12-13-12---------------------------|
------------15----------14-12----------12---------|
------------------------------14-12-14----14-12---|
------------------------------------------------14|
--------------------------------------------------|

-----------------------------|
-----------------------------|
-----------------------------|
-----------------------------|
--2--2--2-0---0-2--2--2-4----|
--2--2--2-0---0-2--2--2-4----|


---------------------------|
---------------------------|
---------------------------|
----------------5--5--4----|
--2--2--2-0---0-3--3--2----|
--2--2--2-0---0------------|


-----------------------------|
-----------------------------|
-----------------------------|
-----------------------------|
--2--2--2-0---0-2--2--2-4----|
--2--2--2-0---0-2--2--2-4----|

---------------------------|
---------------------------|
---------------------7~----|
---------------------7-----|
--2--2--2-0---0-5----------|
--2--2--2-0---0-5----------|


----------------------|
--5-------------------|
--7b-------------x----|
-----------------x----|
----------------------|
----------------------|


----------------------|
--7-------------------|
--9b-------------x----|
-----------------x----|
----------------------|
----------------------|


----------------------------|
---8-----------10-----------|
--10b----------12b----------|
----------------------------|
----------------------------|
----------------------------|


----------------------------|
--12-----------15-----------|
--14b----------17b----------|
----------------------------|
----------------------------|
----------------------------|


---------------------------------------------|
---------------------------------------------|
------------------------------12--------12-14|
--------------12--------12-14-----12-14------|
--------12-14-----12-14----------------------|
--14-17--------------------------------------|

------------------12--------------------12-17|
------------12-15-----------12-15-12-15------|
--16--12-14-----------12-14------------------|
---------------------------------------------|
---------------------------------------------|
---------------------------------------------|


--15b-------------------||
------------------------||
------------------------||
------------------------||
------------------------||
------------------------||

Tab-ature -egend
----------------

x - dead note
g - grace note
(n) - ghost note
> - accentuded note
NH - naturaL harmonic
AH - artificiaL harmonic
TH - tapped harmonic
SH - semi harmonic
PH - pitch harmonic
h - hammer on
p - pull off
b - bend
br - bendRelease
pb - preBend
pbr - preBendRe-ease
brb - bendReleaseBend
\n/ - tremolo bar dip
\n - tremolo bar dive
-/n - tremolo bar Release up
/n\ - tremolo bar inverted dip
/n - tremolo bar return
-\n - tremolo bar Release down
S - shift slide
s - legato slide
/ -  slide into from below or out of upwards
\ -  slide into from above or out of downwards
~ - vibrato
W - wide vibrato
tr - trill
TP - tremolo picking
T - tapping
S - slap
P - pop
< - fade in
^ - brush up
v - brush down
Добавлено: 02.05.2012
Другие материалы по этой песне:

Страница создана 22.02.2012
http://primanota.ru/alexi-laiho/sioux-city-sarsaparilla-chords.htm
Привет, Гость.
Предлагаем пройти революционный курс по гитаре.
Подарок от PrimaNota.Ru, забирай!