PrimaNota.ru - самый крупный в мире бесплатный архив песенных текстов, аккордов, табулатур и нот


Alexander Courage Jerry Goldsmith - Star Trek The Next Generation - таба, видео

Регистрация Запомнить меня
Войти через:  Facebook Google Twitter Vk Yandex Mail.ru

Alexander Courage Jerry Goldsmith - Star Trek The Next Generation - таба, видео

Печатать
Просмотров: 162
Уроки эстрадного вокала в Санкт-Петербурге
(/) Slide Up  (\) Slide Down  (h) Hammer On  (p) Pull Off  (b) Bend (r) Release (v) Vibrato

Main Theme:

E|-------------10-------------15---13--------11---13---15---11---15---13---11-----------------------|
B|--------11--------13------------------15--------------------------------------15---11---15---13---|
G|---10------------------13-------------------------------------------------------------------------|
D|--------------------------------------------------------------------------------------------------|
A|--------------------------------------------------------------------------------------------------|
E|--------------------------------------------------------------------------------------------------|

E|--------------------------------7--------------------5---7---8---7---------------------|
B|-----------7---10-------7-----------10-------7---7-------------------10-------10---8---|
G|-------7--------------------7------------7--------------------------------7------------|
D|---7----------------7------------------------------------------------------------------|
A|---------------------------------------------------------------------------------------|
E|---------------------------------------------------------------------------------------|

E|-------------10-------------15---13--------11---13---15---11---15---13---11----------------------------|
B|--------11--------13------------------15--------------------------------------15---15---11---15---13---|
G|---10------------------13------------------------------------------------------------------------------|
D|-------------------------------------------------------------------------------------------------------|
A|-------------------------------------------------------------------------------------------------------|
E|-------------------------------------------------------------------------------------------------------|

E|---------------------------4-------------------4---5---4---------------------------|
B|---4---5---6---7---4-----------7-------4---7---------------7-------7---5-------7---|
G|-----------------------4-----------4---------------------------4-----------6-------|
D|-----------------------------------------------------------------------------------|
A|-----------------------------------------------------------------------------------|
E|-----------------------------------------------------------------------------------|

E|---------------------------------------------------------------------------|
B|---5---------------7---5-----------5---7---8---6---6---5-------------------|
G|-------5---7---------------6---7---------------------------5---7-------7---|
D|---------------7---------------------------------------------------7-------|
A|---------------------------------------------------------------------------|
E|---------------------------------------------------------------------------|

E|-----------7------------12---10--------8---10---12---8---10---12---13---11---15-------------------|
B|-------8-------10-----------------12--------------------------------------------------------------|
G|---7---------------10-----------------------------------------------------------------------------|
D|----------------------------------------------------------------------------------5---5---5---5---|
A|----------------------------------------------------------------------------------5---5---5---5---|
E|----------------------------------------------------------------------------------3---3---3---3---|
Добавлено: 27.12.2015
Другие материалы по этой песне:
  • Аккорды и текст

Страница создана 27.12.2015
http://primanota.ru/alexander-courage-jerry-goldsmith/star-trek-next-generation-chords.htm
Привет, Гость.
Предлагаем пройти революционный курс по гитаре.
Подарок от PrimaNota.Ru, забирай!