PrimaNota.ru - самый крупный в мире бесплатный архив песенных текстов, аккордов, табулатур и нот


Alex Vargas - Solid Ground - таба, видео

Регистрация Запомнить меня
Войти через:  Facebook Google Twitter Vk Yandex Mail.ru

Alex Vargas - Solid Ground - таба, видео

Печатать
Просмотров: 149
-------------------------------------------------------------------------------
                             SOLID GROUND - Alex Vargas
-------------------------------------------------------------------------------
Tabbed by: Mees Kommer
E-mail:kwalitatievemail@gmail.com

Tuning:standard

https://www.youtube.com/watch?v=RGiuBvDghMM

e|---------------------------------------------------------------------------|
B|---------------------------------------------------------------------------|
G|--9-------------------------4-6------13---13---13---13---13----------------|
D|---------------------------------------------------------------------------|
A|---------------------------------------------------------------------------|
E|--9-------------------------4-5----12---12---12---12---12------------------|
  He has your hand, You hold my everything
e|---------------------------------------------------------------------------|
B|---------------------------------------------------------------------------|
G|-9--------------------------4-6------13---13---13---13---13----------------|
D|---------------------------------------------------------------------------|
A|---------------------------------------------------------------------------|
E|-9--------------------------4-5----12---12---12---12---12------------------|
  This silent burden will be my tragedy
e|---------------------------------------------------------------------------|
B|---------------------------------------------------------------------------|
G|--6---6---6---6---6---6---6---9---9---9---9---8---8---8---8----------------|
D|---------------------------------------------------------------------------|
A|---------------------------------------------------------------------------|
E|-5---5---5---5---5---5---5---9---9---9---9---7---7---7---7-----------------|
  But your eyes say it al,    When I lay you down
e|---------------------------------------------------------------------------|
B|---------------------------------------------------------------------------|
G|--6---6---6---6---6---6---6---9---9---9---9---8---8---8---8----------------|
D|---------------------------------------------------------------------------|
A|---------------------------------------------------------------------------|
E|-5---5---5---5---5---5---5---9---9---9---9---7---7---7---7-----------------|
  But your eyes say it al,    When I lay you down


e|---------------------------------------------------------------------------|
B|---------------------------------------------------------------------------|
G|--9-------------------------4-6------13---13---13---13---13----------------|
D|---------------------------------------------------------------------------|
A|---------------------------------------------------------------------------|
E|--9-------------------------4-5----12---12---12---12---12------------------|
  I'll keep it close while I am under it
e|---------------------------------------------------------------------------|
B|---------------------------------------------------------------------------|
G|--9-------------------------4-6------13---13---13---13---13----------------|
D|---------------------------------------------------------------------------|
A|---------------------------------------------------------------------------|
E|--9-------------------------4-5----12---12---12---12---12------------------|
  Dry every tear before you discover it
e|---------------------------------------------------------------------------|
B|---------------------------------------------------------------------------|
G|--6---6---6---6---6---6---6---9---9---9---9---8---8---8---8----------------|
D|---------------------------------------------------------------------------|
A|---------------------------------------------------------------------------|
E|-5---5---5---5---5---5---5---9---9---9---9---7---7---7---7-----------------|
  When my eyes say it all,   When I lay you down
e|---------------------------------------------------------------------------|
B|---------------------------------------------------------------------------|
G|--6---6---6---6---6---6---6---9---9---9---9---8---8---8---8----------------|
D|---------------------------------------------------------------------------|
A|---------------------------------------------------------------------------|
E|-5---5---5---5---5---5---5---9---9---9---9---7---7---7---7-----------------|
  And my eyes say it all,     When I lay you down 


e|---------------------------------------------------------------------------|
B|---------------------------------------------------------------------------|
G|--6---6---6---6---6---6---6---9---9---9---9---8---8---8---8----------------|
D|---------------------------------------------------------------------------|
A|---------------------------------------------------------------------------|
E|-5---5---5---5---5---5---5---9---9---9---9---7---7---7---7-----------------|
  In the arms of another,     You're on solid ground
e|---------------------------------------------------------------------------|
B|---------------------------------------------------------------------------|
G|--6---6---6---6---6---6---6---9---9---9---9---8---8---8---8----------------|
D|---------------------------------------------------------------------------|
A|---------------------------------------------------------------------------|
E|-5---5---5---5---5---5---5---9---9---9---9---7---7---7---7-----------------|
   I'm a fool, I'm a coward  and I'm breaking down 


e|---------------------------------------------------------------------------|
B|---------------------------------------------------------------------------|
G|--9-------------------------4-6------13---13---13---13---13----------------|
D|---------------------------------------------------------------------------|
A|---------------------------------------------------------------------------|
E|--9-------------------------4-5----12---12---12---12---12------------------|
  I know he's safety and I am disarray
e|---------------------------------------------------------------------------|
B|---------------------------------------------------------------------------|
G|--9-------------------------4-6------13---13---13---13---13----------------|
D|---------------------------------------------------------------------------|
A|---------------------------------------------------------------------------|
E|--9-------------------------4-5----12---12---12---12---12------------------|
  My will be done I'd have you any way
e|---------------------------------------------------------------------------|
B|---------------------------------------------------------------------------|
G|--6---6---6---6---6---6---6---9---9---9---9---8---8---8---8----------------|
D|---------------------------------------------------------------------------|
A|---------------------------------------------------------------------------|
E|-5---5---5---5---5---5---5---9---9---9---9---7---7---7---7-----------------|
  Your eyes say it all, when he lays you down
e|---------------------------------------------------------------------------|
B|---------------------------------------------------------------------------|
G|--6---6---6---6---6---6---6---9---9---9---9---8---8---8---8----------------|
D|---------------------------------------------------------------------------|
A|---------------------------------------------------------------------------|
E|-5---5---5---5---5---5---5---9---9---9---9---7---7---7---7-----------------|
  And my eyes say it all, when he lays you down


e|---------------------------------------------------------------------------|
B|---------------------------------------------------------------------------|
G|--6---6---6---6---6---6---6---9---9---9---9---8---8---8---8----------------|
D|---------------------------------------------------------------------------|
A|---------------------------------------------------------------------------|
E|-5---5---5---5---5---5---5---9---9---9---9---7---7---7---7-----------------|
  In the arms of another,     You're on solid ground
e|---------------------------------------------------------------------------|
B|---------------------------------------------------------------------------|
G|--6---6---6---6---6---6---6---9---9---9---9---8---8---8---8----------------|
D|---------------------------------------------------------------------------|
A|---------------------------------------------------------------------------|
E|-5---5---5---5---5---5---5---9---9---9---9---7---7---7---7-----------------|
   I'm a fool, I'm a coward  and I'm breaking down 
e|---------------------------------------------------------------------------|
B|---------------------------------------------------------------------------|
G|--6---6---6---6---6---6---6---9---9---9---9---8---8---8---8----------------|
D|---------------------------------------------------------------------------|
A|---------------------------------------------------------------------------|
E|-5---5---5---5---5---5---5---9---9---9---9---7---7---7---7-----------------|
  In the arms of another,     You're on solid ground
e|---------------------------------------------------------------------------|
B|---------------------------------------------------------------------------|
G|--6---6---6---6---6---6---6---9---9---9---9---8---8---8---8----------------|
D|---------------------------------------------------------------------------|
A|---------------------------------------------------------------------------|
E|-5---5---5---5---5---5---5---9---9---9---9---7---7---7---7-----------------|
   I'm a fool, I'm a coward  and I'm breaking down 

e|---------------------------------------------------------------------------|
B|---------------------------------------------------------------------------|
G|--6---6---6---6---6---6---6---9---9---9---9---8---8---8---8----------------| X4
D|---------------------------------------------------------------------------|
A|---------------------------------------------------------------------------|
E|-5---5---5---5---5---5---5---9---9---9---9---7---7---7---7-----------------|


e|---------------------------------------------------------------------------|
B|---------------------------------------------------------------------------|
G|--6---6---6---6---6---6---6---9---9---9---9---8---8---8---8----------------|
D|---------------------------------------------------------------------------|
A|---------------------------------------------------------------------------|
E|-5---5---5---5---5---5---5---9---9---9---9---7---7---7---7-----------------|
  In the arms of another,     You're on solid ground
e|---------------------------------------------------------------------------|
B|---------------------------------------------------------------------------|
G|--6---6---6---6---6---6---6---9---9---9---9---8---8---8---8----------------|
D|---------------------------------------------------------------------------|
A|---------------------------------------------------------------------------|
E|-5---5---5---5---5---5---5---9---9---9---9---7---7---7---7-----------------|
   I'm a fool, I'm a coward  and I'm breaking down 
e|---------------------------------------------------------------------------|
B|---------------------------------------------------------------------------|
G|--6---6---6---6---6---6---6---9---9---9---9---8---8---8---8----------------|
D|---------------------------------------------------------------------------|
A|---------------------------------------------------------------------------|
E|-5---5---5---5---5---5---5---9---9---9---9---7---7---7---7-----------------|
  In the arms of another,     You're on solid ground
e|---------------------------------------------------------------------------|
B|---------------------------------------------------------------------------|
G|--6---6---6---6---6---6---6---9---9---9---9---8---8---8---8----------------|
D|---------------------------------------------------------------------------|
A|---------------------------------------------------------------------------|
E|-5---5---5---5---5---5---5---9---9---9---9---7---7---7---7-----------------|
   I'm a fool, I'm a coward  and I'm breaking down 


e|---------------------------------------------------------------------------|
B|---------------------------------------------------------------------------|
G|--9------------------------------------------------------------------------|
D|---------------------------------------------------------------------------|
A|---------------------------------------------------------------------------|
E|--9------------------------------------------------------------------------|
  He has your hand, You hold my everything
Добавлено: 23.12.2015
Другие материалы по этой песне:
  • Аккорды и текст

Страница создана 23.12.2015
http://primanota.ru/alex-vargas/solid-ground-chords.htm
Привет, Гость.
Предлагаем пройти революционный курс по гитаре.
Подарок от PrimaNota.Ru, забирай!