PrimaNota.ru - самый крупный в мире бесплатный архив песенных текстов, аккордов, табулатур и нот


Alex Vargas - Howl - таба, видео

Регистрация Запомнить меня
Войти через:  Facebook Google Twitter Vk Yandex Mail.ru

Alex Vargas - Howl - таба, видео

Печатать
Просмотров: 261
howl - alex vargas tab By BenjaminVinten

| /  slide up
| \  slide down
| h  hammer-on
| p  pull-off
| ~  vibrato
| +  harmonic
| x  Mute note

e|----------------x---------------------x------------------------|
B|----------------x---------------------x------------------------|
G|----------------4---------------------4------------------------| verse
D|----------------6---------------------6------------------------|
A|----------------0---------------------7------------------------|
E|----------------x---------------------0------------------------|

e|----------------x---------------------x------------------------|
B|----------------x---------------------x------------------------|
G|----------------6---------------------11-----------------------| 
D|----------------7---------------------10-----------------------|
A|----------------0---------------------0------------------------|
E|----------------x---------------------x------------------------|

e|---------------------------------------------------------------|
B|---------------------------------------------------------------|
G|---------------------------------------------------------------|
D|---------------------------------------------------------------|
A|---------------------------------------------------------------|
E|---------------------------------------------------------------|

e|----------------x-----x----x--------x-----x---x----------------|
B|----------------5-----4----x--------5-----4---x----------------|
G|----------------x-----x----4--------x-----x---9----------------| Chorus
D|----------------x-----x----6--------x-----x---9----------------|
A|----------------4-----2----0--------4-----2---7----------------|
E|----------------x-----x----x--------x-----x---x----------------|

e|----------------x-----x----x------x----------------------------|
B|----------------5-----4----x------x----------------------------|
G|----------------x-----x---14------9----------------------------|
D|----------------x-----x---14------9----Back to verse...--------| 
A|----------------4-----2---12------7----------------------------|
E|----------------x-----x----x------x----------------------------|

e|----------------0----0 -----------4--5------7---0--------------|
B|----------------0----0 -----------4--5------7---0--------------|
G|----------------4/6--4 <---x8 ----5--6------8---9 <---x4 ------| Contrast piece/strumming part
D|----------------6/7--6 -----------6--7------9--11--------------|
A|----------------0----7 -----------6--7------9--11--------------|
E|----------------0----0 -----------4--5------7---9--------------|

e|---------------------------------------------------------------|
B|---------------------------------------------------------------|
G|---------------SAME AS VERSE-------SAME AS VERSE---------------|
D|---------------------------------------------------------------| Coda/   
A|---------------------------------------------------------------|
E|---------------------------------------------------------------|
Добавлено: 27.09.2013
Другие материалы по этой песне:
  • Аккорды и текст

Страница создана 27.09.2013
http://primanota.ru/alex-vargas/howl-chords.htm
Привет, Гость.
Предлагаем пройти революционный курс по гитаре.
Подарок от PrimaNota.Ru, забирай!