PrimaNota.ru - самый крупный в мире бесплатный архив песенных текстов, аккордов, табулатур и нот


Alex Story - Gypsy - аккорды и текст, видео

Регистрация Запомнить меня
Войти через:  Facebook Google Twitter Vk Yandex Mail.ru

Alex Story - Gypsy - аккорды и текст, видео

Печатать
Просмотров: 25
Gypsy
Alex Story
SONG:   GYPSY
ARTIST: ALEX STORY
TAB BY: DON CZARSKI
EMAIL:  GUITARZAN7@HOTMAIL.COM

         
                         GYPSY
                       ALEX STORY

CAPO: 1st FRET

INTRO:
 
    G       G       G       G        Em             Em
E ----------------------------------------------------------------
B ----------------------------------------------------------------
G -----------------------------------------0-0-0-0-------0-0-0-0--
D ---------------------------------------2---2-2-2-----2---2-2-2--
A ----2-3-2---2-3-2---2-3-2----2-3-2---------2-2-2---------2-2-2--
E --3-------3--------3-------3--------0--------------0------------

    G       G       G       G        Em             Em
E ----------------------------------------------------------------
B ----------------------------------------------------------------
G -----------------------------------------0-0-0-0-------0-0-0-0--
D ---------------------------------------2---2-2-2-----2---2-2-2--
A ----2-3-2---2-3-2---2-3-2----2-3-2---------2-2-2---------2-2-2--
E --3-------3--------3-------3--------0--------------0------------



VERSE:
G                   D                     Em    
 She dont like the people who say we're friends

    Em
E ----------------------------------------
B ----------------------------------------
G --------0-0-0-0-------------------------
D ------2---2-2-2-------------------------
A ----------2-2-2-------------------3-2---
E --0--------------3-2-0-2--3-2-0-2-------

G                   D                   Em
 She dont like the bullshit that they spill

    Em
E ----------------------------------------
B ----------------------------------------
G --------0-0-0-0-------------------------
D ------2---2-2-2---2/5-4-2---------------
A ----------2-2-2-----------5-4-----------
E --0---------------------------6-5-4-3---


CHORUS:
G                   D
 She dont like the way we live
     G                      D
But she's alright with the love I give 
    G
Gypsy

    G       G       G       G        Em             Em
E ----------------------------------------------------------------
B ----------------------------------------------------------------
G -----------------------------------------0-0-0-0-------0-0-0-0--
D ---------------------------------------2---2-2-2-----2---2-2-2--
A ----2-3-2---2-3-2---2-3-2----2-3-2---------2-2-2---------2-2-2--
E --3-------3--------3-------3--------0--------------0------------

    G       G       G       G        Em             Em
E ----------------------------------------------------------------
B ----------------------------------------------------------------
G -----------------------------------------0-0-0-0-------0-0-0-0--
D ---------------------------------------2---2-2-2-----2---2-2-2--
A ----2-3-2---2-3-2---2-3-2----2-3-2---------2-2-2---------2-2-2--
E --3-------3--------3-------3--------0--------------0------------



VERSE:
G                   D                     Em
 She dont like the hustle these lonesome roads

    Em
E ----------------------------------------
B ----------------------------------------
G --------0-0-0-0-------------------------
D ------2---2-2-2-------------------------
A ----------2-2-2-------------------3-2---
E --0--------------3-2-0-2--3-2-0-2-------


G               D                Em
 She dont like fighting off the coast

  Em
E ----------------------------------------
B ----------------------------------------
G --------0-0-0-0-------------------------
D ------2---2-2-2---2/5-4-2---------------
A ----------2-2-2-----------5-4-----------
E --0---------------------------6-5-4-3---


CHORUS:
G                   D
 She dont like the way we live
     G                      D
But she's alright with the love I give 
    G
Gypsy


    G       G       G       G        Em             Em
E ----------------------------------------------------------------
B ----------------------------------------------------------------
G -----------------------------------------0-0-0-0-------0-0-0-0--
D ---------------------------------------2---2-2-2-----2---2-2-2--
A ----2-3-2---2-3-2---2-3-2----2-3-2---------2-2-2---------2-2-2--
E --3-------3--------3-------3--------0--------------0------------


CHORUS:
G          D
 She is my only love 
    G               D
And I will kill or die for her
    G
Gypsy


    G       G       G       G        Em             Em
E ----------------------------------------------------------------
B ----------------------------------------------------------------
G -----------------------------------------0-0-0-0-------0-0-0-0--
D ---------------------------------------2---2-2-2-----2---2-2-2--
A ----2-3-2---2-3-2---2-3-2----2-3-2---------2-2-2---------2-2-2--
E --3-------3--------3-------3--------0--------------0------------


CHORUS/OUTRO:
Yeah,

G          D
 She is my only love 
    G                D
And I would kill or die for her
   Em
Gypsy

Добавлено: 19.05.2016
Другие материалы по этой песне:
  • Аккорды и текст

Страница создана 19.05.2016
http://primanota.ru/alex-story/gypsy-chords.htm
Привет, Гость.
Предлагаем пройти революционный курс по гитаре.
Подарок от PrimaNota.Ru, забирай!