PrimaNota.ru - самый крупный в мире бесплатный архив песенных текстов, аккордов, табулатур и нот


Alex Sparrow - Shes Crazy But Shes Mine - таба, видео

Регистрация Запомнить меня
Войти через:  Facebook Google Twitter Vk Yandex Mail.ru

Alex Sparrow - Shes Crazy But Shes Mine - таба, видео

Печатать
Просмотров: 88
-------------------------------------------------------------------------------
                             She's Crazy But She's Mine - Alex Sparrow
-------------------------------------------------------------------------------
Tabbed by: andrewleepaul
E-mail: almati03@gmail.com

intro & Chorus:

     (G)                    Cm                  G#
e|---------------------------------3--3--3--3----------4--4--4--4--------------|
B|--------------------------------4---4--4--4---------4---4--4--4--------------|
G|------------------------------5-----5--5--5--------5----5--5--5--------------|
D|-----5-5-3-3-----------------5------5--5--5-------6-----6--6--6--------------|
A|-------------6-6-5-5-----3--3-------3--3--3------6------6--6--6--------------|
E|---------------------------------------------4--4-------4--4--4--------------|

     Fm                    (G)
e|-----------1--1--1--1--------------------------------------------------------|
B|----------1---1--1--1--------------------------------------------------------|
G|---------1----1--1--1--------------------------------------------------------|
D|--------3-----3--3--3------5-5-3-3-------------------------------------------|
A|-------3------3--3--3--------------6-6-5-5-----------------------------------|
E|---1--1-------1--1--1--------------------------------------------------------|


Verses:

   (Cm)
e|-------------------|
B|-------------------|
G|-------------------|
D|-------------------|
A|--3---3----1/2-3---|
E|----------3--------|

Trumpet Solo at End:

e|------------------------------------------------------------------------------|
B|------------------------------------------------------------------------------|
G|----------3-------------3---------------5----3--------------------------------|
D|------------5-------------5-----3---3----------5-3-----3--------5/3------5/3--|
A|----3-5-6---------3-5-6-----------6---6------------6-6---6-3--3-----6--3-----6|
E|------------------------------------------------------------------------------|


I'm not positive how that outro goes, but it should be a simple jazz bit (that I obviously don't know).  If
anybody knows how to tab that shoot me an email?
This is also my first tab, so anything I did incorrectly or missed please bring up for me.
Thanks guys and enjoy!!
Добавлено: 16.06.2016
Вам также может быть интересно:
Другие материалы по этой песне:
  • Аккорды и текст

Страница создана 16.06.2016
http://primanota.ru/alex-sparrow/shes-crazy-but-shes-mine-chords.htm
Привет, Гость.
Предлагаем пройти революционный курс по гитаре.
Подарок от PrimaNota.Ru, забирай!