PrimaNota.ru - самый крупный в мире бесплатный архив песенных текстов, аккордов, табулатур и нот


Alex Kostka - Recover - таба, видео

Регистрация Запомнить меня
Войти через:  Facebook Google Twitter Vk Yandex Mail.ru

Alex Kostka - Recover - таба, видео

Печатать
Просмотров: 68
-------------------------------------------------------------------------------
                             RECOVER - Alex Kostka
-------------------------------------------------------------------------------
Tabbed by:Ethan Wiggans
E-mail:ethanw99@live.com

Tuning:Standard

Be sure to check out his bandcamp, an amazing artist with all songs available for free download.

http://alexkostkamusic.bandcamp.com/





e|---------------------------------------------------------------------------|--
B|---------------------------------------------------------------------------|  |
G|-------------6-----------6--------------6--6-5-----------------------------|  |
D|-8/10\8-6----6-----------6--8/10\8-6----6----6-----------------------------|  |
A|----------4--4-4h6-------6-----------4--4----4-----------------------------|  |
E|-------------------(4)4--4---------------------4---------------------------|  |
                                                                                | Repeat
e|---------------------------------------------------------------------------|  |
B|-----------------------------------6---6------6----------------------------|  |
G|-------------6---6------6---6-6----8-----8----8-8--------------------------|  | 
D|-8/10\8-6----6----------6---6-6----8-------8--8-8--------------------------|  |
A|(6)-------4--4-4---4----6---6-6-6--6----------6----------------------------|  |
E|---------------------4--4---4-4----6---------------------------------------|--

  Ive come to learn that i will... Heal
  For the broken part of me that dissapears
  On and on ill be searching for
  the missing parts that i ignore
  
  And ive been so damn tired and confused
  Living with the fake and the truth 
  But when its all said and done
  ill keep on living the way that its meant to be


 <<>>             <<>>

e|---------------------------------------------------------------------------|
B|---4--4-4----4--4-4-----------------6--6--6-6--6---------------------------|
G|---6--6-6----5--5-5-----------------8--8--8-8--8---------------------------|
D|---6--6-6----6--6-6-----(X3)--------8--8--8-8--8---------------------------|
A|-4-4--4-4--6-6--6-6-----------------6--6--6-6--6---------------------------|
E|---4--4-4--4-4--4-4-----------------6--6--6-6--6---------------------------|

  And I swear that im still the same person
  Just sometimes things get the best of us
  When It all falls back in place
  Ill lead myself to a way of living


e|---------------------------------------------------------------------------|--
B|---------------------------------------------------------------------------|  |
G|-------------6-----------6--------------6--6-5-----------------------------|  |
D|-8/10\8-6----6-----------6--8/10\8-6----6----6-----------------------------|  |
A|----------4--4-4h6-------6-----------4--4----4-----------------------------|  |
E|-------------------(4)4--4---------------------4---------------------------|  |
                                                                                | Repeat
e|---------------------------------------------------------------------------|  |
B|-----------------------------------6---6------6----------------------------|  |
G|-------------6---6------6---6-6----8-----8----8-8--------------------------|  | 
D|-8/10\8-6----6----------6---6-6----8-------8--8-8--------------------------|  |
A|(6)-------4--4-4---4----6---6-6-6--6----------6----------------------------|  |
E|---------------------4--4---4-4----6---------------------------------------|--

  Thats okay
  thats okay
  whistles...
  whistles...


e|---------------------------------------------------------------------------|
B|---4--4-4----4--4-4-----------------6--6--6-6--6---------------------------|
G|---6--6-6----5--5-5-----------------8--8--8-8--8---------------------------|
D|---6--6-6----6--6-6-----(X3)--------8--8--8-8--8---------------------------|
A|-4-4--4-4--6-6--6-6-----------------6--6--6-6--6---------------------------|
E|---4--4-4--4-4--4-4-----------------6--6--6-6--6---------------------------|


  And I swear that im still the same person
  Just sometimes things get the best of us
  When It all falls back in place
  Ill lead myself to a way of living


e|---------------------------------------------------------------------------|
B|---------------------------------------------------------------------------| 
G|-------------6-----------6--------------6--6-5-----------------------------| 
D|-8/10\8-6----6-----------6--8/10\8-6----6----6-----------------------------| 
A|----------4--4-4h6-------6-----------4--4----4-----------------------------|  
E|-------------------(4)4--4---------------------4---------------------------| 
                                                                               
e|---------------------------------------------------------------------------| 
B|-----------------------------------6---6------6----------------------------| 
G|-------------6---6------6---6-6----8-----8----8-8--------------------------|  
D|-8/10\8-6----6----------6---6-6----8-------8--8-8--------------------------| 
A|(6)-------4--4-4---4----6---6-6-6--6----------6----------------------------| 
E|---------------------4--4---4-4----6---------------------------------------|

  Thats okay
  thats okay
  whistles...
  whistles

e|---------------------------------------------------------------------------|
B|---------------------------------------------------------------------------| 
G|---------------6-----------------------------------------------------------| 
D|-8/10\8-6------6-----------------------------------------------------------| 
A|----------4----4-----------------------------------------------------------|  
E|---------------4-----------------------------------------------------------| 



************************************

| /   slide up
| \   slide down
| h   hammer-on
| p   pull-off
| ~   vibrato
| +   harmonic
| x   Mute note
| b   Bend
| pb  Pre-bend
| br  Bend release
| pbr Pre-bend release
| brb Bend release bend

************************************

Добавлено: 08.10.2013
Другие материалы по этой песне:
  • Аккорды и текст

Страница создана 08.10.2013
http://primanota.ru/alex-kostka/recover-chords.htm
Привет, Гость.
Предлагаем пройти революционный курс по гитаре.
Подарок от PrimaNota.Ru, забирай!