PrimaNota.ru - самый крупный в мире бесплатный архив песенных текстов, аккордов, табулатур и нот


Alex G - Soaker - таба, видео

Регистрация Запомнить меня
Войти через:  Facebook Google Twitter Vk Yandex Mail.ru

Alex G - Soaker - таба, видео

Печатать
Просмотров: 112
-------------------------------------------------------------------------------
                              Soaker - Alex G
-------------------------------------------------------------------------------

Tuning: Standard

based off of this video: https://www.youtube.com/watch?v=_Eow9qn1F3s

Verse  
e|---------------------------------------------------------------------------|
B|---------------------------------------------------------------------------|
G|--2-2-2-2-2-2-2-2-2-2-2-2-2-2-2-2------------------------------------------|
D|--4-4-4-4-4-4-4-4-4-4-4-4-4-4-4-4------------------------------------------|
A|--4-4-4-4-4-4-4-4-4-4-4-4-4-4-4-4------------------------------------------|
E|--2-2-2-2-2-2-2-2-0-0-0-0-0-0-0-0------------------------------------------| x5


Chorus 
e|---------------------------------------------------------------------------|
B|---------------------------------------------------------------------------|
G|--3-3-3-3-3-3-3-3-1-1-1-1-1-1-1-1-1----------------------------------------|
D|--4-4-4-4-4-4-4-4-2-2-2-2-2-2-2-2-2----------------------------------------|
A|--4-4-4-4-4-4-4-4-2-2-2-2-2-2-2-2-2----------------------------------------|
E|---------------------------------------------------------------------------| x4


Verse  
e|---------------------------------------------------------------------------|
B|---------------------------------------------------------------------------|
G|--2-2-2-2-2-2-2-2-2-2-2-2-2-2-2-2------------------------------------------|
D|--4-4-4-4-4-4-4-4-4-4-4-4-4-4-4-4------------------------------------------|
A|--4-4-4-4-4-4-4-4-4-4-4-4-4-4-4-4------------------------------------------|
E|--2-2-2-2-2-2-2-2-0-0-0-0-0-0-0-0------------------------------------------| x4


Chorus 
e|---------------------------------------------------------------------------|
B|---------------------------------------------------------------------------|
G|--3-3-3-3-3-3-3-3-1-1-1-1-1-1-1-1-1----------------------------------------|
D|--4-4-4-4-4-4-4-4-2-2-2-2-2-2-2-2-2----------------------------------------|
A|--4-4-4-4-4-4-4-4-2-2-2-2-2-2-2-2-2----------------------------------------|
E|---------------------------------------------------------------------------| x8
Добавлено: 09.10.2015
Другие материалы по этой песне:
  • Аккорды и текст

Страница создана 09.10.2015
http://primanota.ru/alex-g/soaker-chords.htm
Привет, Гость.
Предлагаем пройти революционный курс по гитаре.
Подарок от PrimaNota.Ru, забирай!