PrimaNota.ru - самый крупный в мире бесплатный архив песенных текстов, аккордов, табулатур и нот


Alex G - Sandy - таба, видео

Регистрация Запомнить меня
Войти через:  Facebook Google Twitter Vk Yandex Mail.ru

Alex G - Sandy - таба, видео

Печатать
Просмотров: 188
-------------------------------------------------------------------------------
                             "Sandy" - Alex G
-------------------------------------------------------------------------------
Tabbed by: Seth N. Props
E-mail: sethprops@yahoo.com
Let me know if you have any questions by reaching the comment section or my e-mail

Tuning:DADF#BE

Intro:
(X4)
e |---------------------------------------------------------------------------|
B |---------------------------------------------------------------------------|
F#|------0-----------0--------------------------------------------------------|
D |----0-----0-----0-----0----------------------------------------------------|
A |--0-----------2------------------------------------------------------------|
D |0-------0---0-------0------------------------------------------------------|

Verse:
e |---------------------------------------------------------------------------|
B |---------------------------------------------------------------------------|
F#|------0-----------0-----------0-----------0-----------0-----------0--------|
D |----0-----0-----0-----0-----0-----0-----0-----0-----0-----0-----0-----0----|
A |--0-----------2-----------7-----------4-----------9-----------5------------|
D |0-------0---0-------0---7-------7---4-------4---9-------9---5-------5------|

                                           (X4)
e |---------------------------|-----------------------------|
B |---------------------------|-----------------------------|
F#|-------0-----------0-------|---------0------------0------|
D |-----0-----0-----0-----0---|-------0------0-----0-----0--|
A |---3-----------5-----------|----12------------9----------|
D |-3-------0---5-------0-----|-12--------12---9-------9----|

Chorus:
      (X4)
e |-2--7--5--9--|
B |-3--5--3--0--|
F#|-0--0--0--0--|
D |-0--0--0--0--|
A |-0--0--0--0--|
D |-0--0--0--9--|

Ending:
       X4)
e |-2--7--5--9--|-5--2--2-|
B |-3--5--3--0--|-0--0--3-|
F#|-0--0--0--0--|-0--0--0-|
D |-0--0--0--0--|-0--0--4-|
A |-0--0--0--0--|-0--0--5-|
D |-0--0--0--9--|-5--2--0-|

Lyrics:
My name is Sandy i'm 14 years old
My friends think i'm ugly
But dad says im the prettiest thing
The prettiest thing
The prettiest thing
The prettiest thing
The prettiest thing

My name is Sandy i'm 14 years old
Sometimes I hate you
But right now I just wanna go home
I just wanna go home
Just wanna go home
Just wanna go home
Just wanna go home

My name is Sandy i'm 14 years old
My brother says he hates me
And Satan is his master

My name is Sandy i'm 14 years old
My insides are changing
But right now I just wanna grow up
I just wanna grow up
I just wanna grow up
I just wanna grow up
I just wanna grow up
I just wanna grow up
I just wanna grow up
I just wanna grow up
I just wanna grow up

Have fun guys. :)
Добавлено: 13.04.2016
Другие материалы по этой песне:
  • Аккорды и текст

Страница создана 13.04.2016
http://primanota.ru/alex-g/sandy-chords.htm
Привет, Гость.
Предлагаем пройти революционный курс по гитаре.
Подарок от PrimaNota.Ru, забирай!