PrimaNota.ru - самый крупный в мире бесплатный архив песенных текстов, аккордов, табулатур и нот


Alex G - Memory - таба, видео

Регистрация Запомнить меня
Войти через:  Facebook Google Twitter Vk Yandex Mail.ru

Alex G - Memory - таба, видео

Печатать
Просмотров: 99
-------------------------------------------------------------------------------
                             Memory - Alex G 
-------------------------------------------------------------------------------
Tabbed by: Liam Pasley
E-mail:liampasley@gmail.com

Apparently the tuning is called Open CMaj7 but I am not completely sure what it is but it follows as: 

Tuning: CGCGBe

Intro chords: 

He plays this phrase first 
e|---------------------------------------------------------------------------|
B|--0-0-0-0------------------------------------------------------------------|
G|--0-0-4-0------------------------------------------------------------------|
C|--0-0-0-0--4\--2222-4444---x1----------------------------------------------|
G|--5-5-5-5--0\--0000-0000---------------------------------------------------|
C|--5-5-5-5--0\--0000-0000----====-------------------------------------------|

Then this phrase: 

e|---------------------------------------------------------------------------|
B|--0-0-0-0------------------------------------------------------------------|
G|--0-0-4-0------------0-----------------------------------------------------|
C|--0-0-0-0--4\--2222h4-4---x1-----------------------------------------------|
G|--5-5-5-5--0\--00000---0---------------------------------------------------|
C|--5-5-5-5--0\--00000-------------------------------------------------------|

These are played one after each other and they are one bar each, so 8 bars long, 4 of each phrase played. 
Phrase 1 then phrase 2, repeat.

Listen to the song to get the swing of the rhythm he plays.
  
Verses chords are: 

e|---------------------------------------------------------------------------|
B|---------------------------------------------------------------------------|
G|---------------------------------------------------------------------------|
C|---------------------------------------------------------------------------|
G|--7------9-----2------7------4------5------9------5------------------------|
C|--7--x8--9--x8-2--x8--7--x8--4--x8--0--x8--9--x8--5------------------------|

Chorus chords are the same for as the intro so: 

e|---------------------------------------------------------------------------|
B|--0-0-0-0------------------------------------------------------------------|
G|--0-0-4-0------------------------------------------------------------------|
C|--0-0-0-0--4\--2222-4444---x1----------------------------------------------|
G|--5-5-5-5--0\--0000-0000---------------------------------------------------|
C|--5-5-5-5--0\--0000-0000----====-------------------------------------------|

e|---------------------------------------------------------------------------|
B|--0-0-0-0------------------------------------------------------------------|
G|--0-0-4-0------------0-----------------------------------------------------|
C|--0-0-0-0--4\--2222h4-4---x1-----------------------------------------------|
G|--5-5-5-5--0\--00000---0---------------------------------------------------|
C|--5-5-5-5--0\--00000-------------------------------------------------------|

The verse chords played in the outro of the song have an added note so they become: 

e|---------------------------------------------------------------------------|
B|---------------------------------------------------------------------------|
G|--7------9-----2------7------4------5------9------5------------------------|
C|---------------------------------------------------------------------------|
G|--7------9-----2------7------4------5------9------5------------------------|
C|--7--x8--9--x8-2--x8--7--x8--4--x8--0--x8--9--x8--5------------------------|

The order of the song is: 

Intro x8 
Verse x2 
Chorus x8
verse into outro for the rest of the song 

Email me for any corrections or questions. 

************************************

| /   slide up
| \   slide down
| h   hammer-on
| p   pull-off
| ~   vibrato
| +   harmonic
| x   Mute note
| b   Bend
| pb  Pre-bend
| br  Bend release
| pbr Pre-bend release
| brb Bend release bend

************************************
Добавлено: 13.04.2016
Вам также может быть интересно:
Другие материалы по этой песне:
  • Аккорды и текст

Страница создана 13.04.2016
http://primanota.ru/alex-g/memory-chords.htm
Привет, Гость.
Предлагаем пройти революционный курс по гитаре.
Подарок от PrimaNota.Ru, забирай!