PrimaNota.ru - самый крупный в мире бесплатный архив песенных текстов, аккордов, табулатур и нот


Alex G - Kicker - таба, видео

Регистрация Запомнить меня
Войти через:  Facebook Google Twitter Vk Yandex Mail.ru

Alex G - Kicker - таба, видео

Печатать
Просмотров: 66
-------------------------------------------------------------------------------
                             Kicker - Alex G
-------------------------------------------------------------------------------
Tabbed by: Daniel W     
Tuning: Drop D: DADGBE
This is the part that Alex plays live, roughly. Haven't done the other guitar part. You will have to 
interpret some of the rhythms by listening to the song because I can't really tab them
INTO/MAIN PART:
e|---------------------------------------------------------------------------|
B|---------------------------------------------------------------------------|
G|---------------------------------------------------------------------------|
D|-7--4-4-4-4--7--2-2-2-4-2-0-0--0-------------------------------------------|
A|-5--2-2-2-2--5--0-0-0-0-0-0-0h20-------------------------------------------|
D|-5--2-2-2-2--5--0-0-0-0-0-0-0--0-------------------------------------------|
VERSE (W/ SINING)
e|---------------------------------------------------------------------------|
B|---------------------------------------------------------------------------|
G|---------------------------------------------------------------------------|
D|-117-7-7--14-9-9-9-9-9-9-9-9-9-9-9-9-4-4-4-4-2-2-2-2-2-2-2-2---------------|
A|-9-5-5-5--12-7-7-7-7-7-7-7-7-7-7-7-7-2-2-2-2-0-0-0-0-0-0-0-0---------------|
D|-9-5-5-5--12-7-7-7-7-7-7-7-7-7-7-7-7-2-2-2-2-0-0-0-0-0-0-0-0---------------|
OUTRO
e|---------------------------------------------------------------------------|
B|---------------------------------------------------------------------------|
G|---------------------------------------------------------------------------|
D|---0--0--0--0-2-3-4-5--5-5-5-5-5--7--7-7-7-7--7----------------------------|
A|--7--7--9--9--2-3-4-5--5-5-5-5-5--7--7-7-7-7h97----------------------------|
D|-6--7--8--9---2-3-4-5--5-5-5-5-5--7--7-7-7-7--7----------------------------|
Добавлено: 13.04.2016
Другие материалы по этой песне:
  • Аккорды и текст

Страница создана 13.04.2016
http://primanota.ru/alex-g/kicker-chords.htm
Привет, Гость.
Предлагаем пройти революционный курс по гитаре.
Подарок от PrimaNota.Ru, забирай!