PrimaNota.ru - самый крупный в мире бесплатный архив песенных текстов, аккордов, табулатур и нот


Alex G - Be Kind - таба, видео

Регистрация Запомнить меня
Войти через:  Facebook Google Twitter Vk Yandex Mail.ru

Alex G - Be Kind - таба, видео

Печатать
Просмотров: 69
Уроки эстрадного вокала в Санкт-Петербурге
-------------------------------------------------------------------------------
                             BE KIND - Alex G
-------------------------------------------------------------------------------
Tabbed by: Liam Pasley 
E-mail: liampasley@gmail.com

Tuning: Standard 

This is kind of complicated to tab out and I've only worked a little bit. I'm tabbing from this video:

https://www.youtube.com/watch?v=EnW2x1VZdkY

Intro: These are the chords to the intro use the video for the strumming 

e|------------0--------------------------------------------------------------|
B|----1--1--1-1-1------------------------------------------------------------|
G|----2--0--0-2-0------------------------------------------------------------|
D|----2--0--2-3-2------------------------------------------------------------|
A|-0-----2--3---3------------------------------------------------------------|
E|---------------------------------------------------------------------------|

The D minor run: 

e|--1--0---------------------------------------------------------------------|
B|--3--3--3--1--111--1---1---------------------------------------------------|
G|--2--2--2--2--222--h2--0---------------------------------------------------|
D|--------------333--3---2---------------------------------------------------|
A|-----------------------3---------------------------------------------------|
E|---------------------------------------------------------------------------|

The bass part of the c major run goes

e|---------------------------------------------------------------------------|
B|---------------------------------------------------------------------------|
G|---------------------------------------------------------------------------|
D|-----0--2------------------------------------------------------------------|
A|--3------------------------------------------------------------------------|
E|------------3--1--0--3--2--------------------------------------------------|

He holds a C major all this time so it becomes 

e|---------------------------------------------------------------------------|
B|--1--1--1--1--1--1--1--1---------------------------------------------------|
G|--0--0--0--0--0--0--0--0---------------------------------------------------|
D|--2--0--2--2--2--2--2--2---------------------------------------------------|
A|--3--3--3--0--0--0--0--0---------------------------------------------------|
E|-----------3--1--0--3--2---------------------------------------------------|



| /   slide up
| \   slide down
| h   hammer-on
| p   pull-off
| ~   vibrato
| +   harmonic
| x   Mute note
| b   Bend
| pb  Pre-bend
| br  Bend release
| pbr Pre-bend release
| brb Bend release bend

************************************
Добавлено: 13.04.2016
Другие материалы по этой песне:
  • Аккорды и текст

Страница создана 13.04.2016
http://primanota.ru/alex-g/be-kind-chords.htm
Привет, Гость.
Предлагаем пройти революционный курс по гитаре.
Подарок от PrimaNota.Ru, забирай!