PrimaNota.ru - самый крупный в мире бесплатный архив песенных текстов, аккордов, табулатур и нот


Alex Campos - Me Robaste El Corazon - таба, видео

Регистрация Запомнить меня
Войти через:  Facebook Google Twitter Vk Yandex Mail.ru

Alex Campos - Me Robaste El Corazon - таба, видео

Печатать
Просмотров: 116
aqui esta el tab completo

PRE-INTRO:
e|-------------------------------------------------------------------------|
B|--------3---1---1--------3--3--3------1--1--1--0---0----1---1---3--3--3--|
G|-----0----0---0---0----0--0--0--0---2--2--2--2---0---0---0---0---0--0-0--|
D|-------------------------------------------------------------------------|
A|--3------------------2------------0--------------------------------------|
E|-----------------------------------------------3--------3-------3--------|

INTRO

e|--0-----0-------1p0----------3P0-------------------0-------1p0-----------|
B|--1---3---3---3-----3--1---1-----1-0---0h1-3-1---3---3---3-----3--1---1--|
G|----0-------0------------2-----------0---------0-------0------------2----|
D|-------------------------------------------------------------------------|
A|--3-------2------------0---------------------3-------2------------0------|
E|-----------------------------------3-------------------------------------|


e|--3p0------------------------------------------|
B|------1-0---0---1---1--3---3---3---3-----------|
G|----------0---0---0--0---0---0---0-------------|
D|-----------------------------------------------|
A|----------------------------------------0*-----|
E|--------3--------------------------------------|


VERSO
e|---------------------------------------------------------------------------|
B|---1---1---1---1----3---3---3---3----1---1---1---1----0---0---0H1---0------|
G|-----0---0---0---0----0---0---0---0----2---2---2---2----0---0-----0---0----|
D|---------------------------------------------------------------------------|
A|---3----------------2----------------0-------------------------------------|
E|------------------------------------------------------3--------------------|

e|---------------------------------------------------------------------------|
B|---1---1---1---1----3---3---3---3----1---1---1---1----0---0---1--0---------|
G|-----0---0---0---0----0---0---0---0----2---2---2---2----0---0--0---0-------|
D|---------------------------------------------------------------------------|
A|---3----------------2----------------0-------------------------------------|
E|------------------------------------------------------3--------------------|

VERSO otra vez, un poco de adornos


e|--------------------------------0------------------------------------------|
B|---1---1---1---1----3---3---3----3-3--1---1---1---1---0---0---1---3--------|
G|-----0---0---0---0----0---0---0---0-----2---2---2---2---0---0---0----------|
D|---------------------------------------------------------------------------|
A|---3----------------2-----------------0------------------------------------|
E|------------------------------------------------------3--------------------|

e|---------------------------------------------------------------------------|
B|--1---1---1---1----3---3---3---3----1---1---1---1----0---0---1---0---------|
G|----0---0---0---0----0---0---0---0----2---2---2---2----0---0---0---0-------|
D|---------------------------------------------------------------------------|
A|--3----------------2----------------0--------------------------------------|
E|-----------------------------------------------------3-------3-------------|

PRE-CORO-


e|----------0---------------0----------------1----------------1----------------|
B|------1-------1-------1-------1--------0-----0---0------3-----3---3----------|
G|----0--(0)--0---0---0--(0)--0--0-----0--(0)----0------2---2-----2------------|
D|----------------------------------------------------0------------------------|
A|--3---------------3----------------------------------------------------------|
E|----------------------------------3------------------------------------------|
                   "Es hermoso estar dormido..."

e|-------------------------0-------------3----------------1------------------|
B|-----1-------1-------1-----1--1-----0-----0---0------3-------3--------1----|
G|---2---2---2---2---0---0----0-----0---0-----0------2---2---2---2----2---2--|
D|-------------------------------------------------0-------------------------|
A --0------2-------3------------------------------------------------0--------|
E|--------------------------------3------------------------------------------|

e|------------------3---------------3----------------1p0---------------------|
B|------1-------1-----1---0-----0-----0---0------3-------3--------1----------|
G|----2--2----0--(0)----0-----0--(0)----0------2---2-------2----2---2--------|
D|-------------------------------------------0-------------------------------|
A|--2-------3-------------------------------------------------0--------------|
E|--------------------------3------------------------------------------------|

e|------------------3---------------3----------------0-----------------------|
B|------1-------1-----1---0-----0-----0---0------3------3-------1------------|
G|----2--2----0--(0)----0-----0--(0)----0------2---2------2---2---2----------|
D|-------------------------------------------0-------------------------------|
A|--2-------3-----------------------------------------------0----------------|
E|--------------------------3------------------------------------------------|
CORO
e|----0--------------------------3-----------3---------------1---------------|
B|-----1--1-----1-----1------0-------0-----3----3--------3-----3---3---------|
G|------2---2--------2-----0--(0)--0-----0--------0----2---2-----2-----------|
D|---------------------------------------------------0-----------------------|
A|--0---------0---0h2---3----------------------------------------------------|
E|-------------------------------------3-------------------------------------|
                       "Tu, solo tu....


e|---------------------------3---------------3---------------1---------------|
B|--------1-------1------1-----1---1-----3-----3---3-----3-------3-------1---|
G|------2-------2------0---0-----0-----0---0-----0-----2---2---2---2---2---2-|
D|----2-------0--------------------------------------0-----------------------|
A|--0-------2--------3-----------------------------------------------0-------|
E|-----------------------------------3---------------------------------------|

e|------------------3---------------3----------------0---------------0-------|
B|------1-------1-----1---0-----0-----0---0------3------3-------1-----1-1--1-|
G|----2--2----0--(0)----0-----0--(0)----0------2---2------2---2---2----2-2---|
D|-------------------------------------------0-------------------------------|
A|--2-------3-----------------------------------------------0-------0-----0--|
E|--------------------------3------------------------------------------------|

then goes to intro again, this simple bass
e|--------|
B|--------|
G|--------|
D|--------|
A|-0--2---|
E|--------|

e|-------0-------1p0----------3P0-------------------0-------1p0------------|
B|--1---3---3---3-----3--1---1-----1-0---0h1-3-1---3---3---3-----3--1---1--|
G|----0-------0------------2-----------0---------0-------0------------2----|
D|-------------------------------------------------------------------------|
A|--3-------2------------0---------------------3-------2------------0------|
E|-----------------------------------3-------------------------------------|


e|--3p0------------------------------------------|
B|------1-0---0---1---1--3---3---3---3-----------|
G|----------0---0---0--0---0---0---0-------------|
D|-----------------------------------------------|
A|----------------------------------------0*-----|
E|--------3--------------------------------------|


Meanwhile the piano part...

    "me robaste el corazon...
e|-----------------------------------------------------|
B|--------------------------8/10-10-10-8--8-8-10-10-8--|
G|-----------------------------------------------------|
D|-----------------------------------------------------|
A|-----------------------------------------------------|
E|-----------------------------------------------------|
   te adueñaste de mi vida...
e|---------------------------------------|
B|---------------------------------------|
G|------------------------------5-7~~-5--|
D|---------------------------6h7---------|
A|---------------------------------------|
E|---------------------------------------|

   de tus labios brota miel...
e|-------------------------8~~~--------------|
B|-----------------------8------5/8-6-5------|
G|--------------------3----------------------|
D|-------------------------------------------|
A|-------------------------------------------|
E|-------------------------------------------|

C //// G//// Am//// G////

Y lo mismo con el saxo 2 veces

e|----------------------------------------------------------------|
B|---0---0---1---1---3--3---3--3-0---0--1--1--3---3---------------|
G|-----0---0---0---0--0---0--0-----0---0--0-0---0---3-------------|
D|----------------------------------------------------------------|
A|----------------------------------------------------------------|
E|---3-------3-------3-----------3------3-----3-------------------|

y esto y despues  entra otra vez a lo arriba, termina en un Do(C)
e|--1/3-3-3/1-1p0--------------------|
B|----------------3p1-1p0------------|
G|-----------------------------------|
D|-----------------------------------|
A|-----------------------------------|
E|-----------------------------------|

gracias a juan(cheeseburger)por empujarme a sacarlo todo
email me if you have and questions
Добавлено: 03.05.2012
Другие материалы по этой песне:

Страница создана 12.04.2012
http://primanota.ru/alex-campos/me-robaste-el-corazon-chords.htm
Привет, Гость.
Предлагаем пройти революционный курс по гитаре.
Подарок от PrimaNota.Ru, забирай!