PrimaNota.ru - самый крупный в мире бесплатный архив песенных текстов, аккордов, табулатур и нот


Alex Britti - Sei La Fine Del Mondo - текст песни, таба, видео

Регистрация Запомнить меня
Войти через:  Facebook Google Twitter Vk Yandex Mail.ru

Alex Britti - Sei La Fine Del Mondo - текст песни, таба, видео

Печатать
Просмотров: 101
		   Alex Britti - Sei A Fine Del Mondo

Ciao.
Intro e prima strofa della canzone.
Accordatura standard mezzo tono sotto.

Saludos

Bonzo

Tuning : E A D G B E  Time Signature: 4/4

 A      |       |       |        B      |       |       Mi/C#
|--------------------------------|------------------------0-------|
|2-----------------------2-------|4-------------------------------|
|2---------------2---------------|----------------4-------1-------|
|2-------2-----------------------|4-----------------------2-------|
|0-------------------------------|--------2-----------------------|
|--------------------------------|--------------------------------|

 |       |       |       |        |       |       |       |
|----------------0---------------|2/--4---4---4---4/--2-----------|
|------------------------0-------|2/--4---4---4---4/--2---5/--2---|
|--------2-----------------------|------------------------4/--2---|
|--------------------------------|--------------------------------|
|4-------------------------------|--------------------------------|
|--------------------------------|--------------------------------|

 A      |       |       |        B      |       |       Do#m7
|--------------------------------|--------------------------------|
|2-----------------------2-------|4---------------4h------5-------|
|2---------------2---------------|4---------------4---------------|
|2-------2-----------------------|4---------------4h------6-------|
|0-------------------------------|--------------------------------|
|--------------------------------|--------------------------------|

 |       |       |       |        Lasus2  |       |       |
|--------------------------------|--------------------------------|
|--------------------------------|------------------------0-------|
|--------------------------------|----------------2---------------|
|--------------------------------|--------2-----------------------|
|4-------------------------------|0-------------------------------|
|--------------------------------|--------------------------------|

 |       |       |       |        B7sus4 |       |       |
|--------------------------------|0-------------------------------|
|--------------------------------|0-------------------------------|
|--------------------------------|2-------------------------------|
|--------------------------------|4-------------------------------|
|--------------------------------|--------2-----------------------|
|--------------------------------|--------------------------------|

 Do#sus2 |       |       |        Do#m7   |       |       |
|----------------4---------------|--------------------------------|
|------------------------4-------|5---------------0---------------|
|6-------4-----------------------|--------------------------------|
|6-------------------------------|--------------------------------|
|4-------------------------------|--------------------------------|
|4-------------------------------|--------------------------------|

 A add9 |       |       |        |       |       |       |
|0-------------------------------|--------------------------------|
|2-------------------------------|--------------------------------|
|4-------------------------------|--------------------------------|
|2-------------------------------|--------------------------------|
|0-------------------------------|--------------------------------|
|--------------------------------|--------------------------------|

 B      |       |       |        |       |       |       |
|--------------------------------|--------------------------------|
|--------------4-----------------|--------------------------------|
|--------4-----------------------|--------------------------------|
|----4---------------------------|--------------------------------|
|2-------------------------------|--------------------------------|
|--------------------------------|--------------------------------|

 A      |       |       |        |       |       |       |
|------------------------0-------|--------------------------------|
|--------------------------------|--------------------------------|
|----------------2---------------|--------------------------------|
|--------2-----------------------|--------------------------------|
|0-------------------------------|--------------------------------|
|--------------------------------|--------------------------------|

 A add9 |       |       |        |       |       |       |
|0-------------------------------|--------------------------------|
|2-------------------------------|--------------------------------|
|4-------------------------------|------------------------4---6---|
|2-------------------------------|------------------4/6-----------|
|0-------------------------------|--------------------------------|
|--------------------------------|--------------------------------|
     
Добавлено: 24.07.2013
Другие материалы по этой песне:
  • Аккорды и текст

Страница создана 29.06.2012
http://primanota.ru/alex-britti/sei-la-fine-del-mondo-chords.htm
Привет, Гость.
Предлагаем пройти революционный курс по гитаре.
Подарок от PrimaNota.Ru, забирай!